Oops, an error
Loading. Please wait.

Only bass

version 3
version 3

Whole song

Interactive

8,676 views 21 this week
1 commentread comment
1 2 3 4 5
x 12
add to favorites
×
Save as Personal and add changes to this tab that will be seen only by you. Learn more ›
×
You can save this tab as Personal to edit and correct it or add notes. All changes will be seen only by you. Learn more »
launch autoscroll
font size
0
reset
guitar tuner
backing track
0:00
0:00
edit
Autoscroll
slow
fast
+/-
esc
set tempo
stop
Author
First tab, but it should be perfect. I dunno exactly what time in the song and exactly 
long each part is played, but if you listen
to it a couple times it should be easy to get down. This is a really fun song, enjoy :-)

Intro/Chorus:

G---------------------------------------------------------------------------|
D|-----12------------------7------------------------------------------------|
A|--------------------------------------------------------------------------|
E|-10------10--12-------5-----5--7------------------------------------------|

Verse: (note that instead of switching strings, you can just stay on the E string and 
up to the 17th fret)

Play this for one measure:

G|--------------------------------------------------------------------------|
D|--------7-----------------------------------------------------------------|
A|--------------------------------------------------------------------------|
E|---7--7-----5-------------------------------------------------------------|

And then play this the rest of the verse:

G|--------------------------------------------------------------------------|
D|-----------7--------------------------------------------------------------|
A|--------------------------------------------------------------------------|
E|--5--7--7-----5-----------------------------------------------------------|

            
            
Suggest correction
Creating personal tab
Creating personal tab
You can edit any tab online and save it as your Personal.

You can edit, replace or remove any tab part or add personal notes – all changes will be seen only by you.

Personal tabs can be accessed anytime from any device, even offline.
Learn more »
comments
print report bad tab
1 comment total.
+2 reply
StarrManzaEntMo 10 Jan 22, 2014 06:07 PM

Wow, this is a lot simpler than I thought it would be. Thanks for your help!

guest
You may want to rate the tab now too:
select rating
Wanna post a correction for this tab? Suggest correction