Oops, an error
Loading. Please wait.

Piggy Tab

version 2
version 2

Whole song

Interactive

2,619 views 6 this week
no commentswrite comment
1 2 3 4 5
please rate
add to favorites
launch autoscroll
font size
0
reset
how to read this tab
guitar tuner
Autoscroll
slow
fast
+/-
esc
set tempo
stop
Help us to improve Ultimate-Guitar.com Take our survey!
×
Author
Difficulty
novice
-----------------------------------------------------------------------------
                           NINE INCH NAILS
-----------------------------------------------------------------------------
okay this is my first tab and I'm letting you know that I think its a bass song but I 
it in guitar mode... so yeah, enjoy

 intro
-|-----------------------------------------------------|
-|-----------------------------------------------------|
-|-----------------------------------------------------|
-|-----------------------------------------------------|
-|-----------------------------------------------------|
-|-3--6--1--0---3--6--1--0--9\8-3--6--1--0--3--6--1----|

2nd verse
-|------------------------------------------|
-|------------------------------------------|
-|------------------------------------------|
-|------------------------------------------|
-|------------------------------------------|
-|-0-2-2-2--0-2-2-2--0-2-2-2--3-3-5-5-------|

-|---------------------------------|
-|---------------------------------|
-|---------------------------------|
-|---------------------------------|
-|---------------------------------|
-|-0-2-2-2--0-2-2-2--0-2-2-2--0-2-3|

3rd verse
-|--------------------------------------------|
-|--------------------------------------------|
-|--------------------------------------------|
-|--------------------------------------------|
-|--------------------------------------------|
-|-0-2-2-2--0-0-0-0--6-6-6-6--1-1-1-1--4-4-3-3|


well, thats all I got... just listen to the song and you'll find out the order it goes to.
Suggest correction
Give kudos to tab author, rate the tab!
1 2 3 4 5
comments
print report bad tab
guest
You may want to rate the tab now too:
select rating
Wanna post a correction for this tab? Suggest correction