Oops, an error
Loading. Please wait.

Starfuckers Inc tab

version 2
version 2

Whole song

1,881 views 6 this week
no commentswrite comment
1 2 3 4 5
3 more votes to show rating
add to favorites
×
Save as Personal and add changes to this tab that will be seen only by you. Learn more ›
×
You can save this tab as Personal to edit and correct it or add notes. All changes will be seen only by you. Learn more »
launch autoscroll
font size
0
reset
how to read this tab
guitar tuner
edit
Autoscroll
slow
fast
+/-
esc
set tempo
stop
Author
Difficulty
-------------------------------------------------------------------------------
                             STARFUCKERS INC. - Nine Inch Nails
-------------------------------------------------------------------------------
Tabbed by: ironmanben
Email: bentrooper@gmail.com

Tuning: Standard ( e B G D A E )

intro x4
e|-------|
B|----5~-|
G|-------|
D|-2-----|
A|-------|
E|-------|

verse (quietly) x16
NOTE: some of the verse was learned by listening to the live version.
e|------------------------|
B|------------------------|
G|------------------------|
D|-------2^~-----2-2--0-0-|
A|------------------------|
E|-0-0-0-----0-0----------|
   x x x     x x x x  x x 

pre-chorus x1
e|-----|
B|-----|
G|-----|
D|-----|
A|-2-5-|
E|-----|

chorus x4
e|-----------------------------|
B|-111111----------------------|
G|-101010--7-7/9-9-9---4-4-4-7-|
D|-8-8-8---7-7/9-9-9---4-4-4-7-|
A|---------5-5/7-7-7---2-2-2-5-|
E|-----------------------------|

bridge 1 x1
e|------------------|
B|------------------|
G|------------------|
D|-2///6///7////14~-|
A|------------------|
E|------------------|

verse x10 (pick scratching and no vocals over the first x2)
pre-chorus x1
chorus x8

bridge 2 x13
e|-------------------|
B|-------------------|
G|---9-9--9-9--9-9-9-|
D|-------------------|
A|-7-----------------|
E|-------------------|

guitar 2 plays this over bridge 2:
x13
e|-----------|
B|-----------|
G|-9~---4~---|
D|-----------|
A|-----------|
E|-----------|

chorus x18

play this over the last x14 of the chorus:
(repeat this x14)
e|-----------------|
B|-----------------|
G|-----------------|
D|-----------------|
A|-----------------|
E|-00-00-00-00-0-0-|

end riff x1
e|-------------|---------|
B|-33-33-33-33-|---------|
G|-11-11-11-11-|---------|
D|-00-00-00-00-|-------2-|
A|-------------|-------2-|
E|-------------|-0~----0-|


| /  slide up
| \  slide down
| h  hammer-on
| p  pull-off
| ~  vibrato
| +  harmonic
| x  Mute note
===============================================================================

            
            
Suggest correction
Creating personal tab
Creating personal tab
You can edit any tab online and save it as your Personal.

You can edit, replace or remove any tab part or add personal notes – all changes will be seen only by you.

Personal tabs can be accessed anytime from any device, even offline.
Learn more »
Give kudos to tab author, rate the tab!
1 2 3 4 5
comments
print report bad tab
guest
You may want to rate the tab now too:
select rating
Wanna post a correction for this tab? Suggest correction