Oops, an error
Loading. Please wait.

Sun Spots bass

version 1
version 1

Whole song

Interactive

2,125 views 1 this week
5 commentsread comments
1 2 3 4 5
x 6
add to favorites
×
Save as Personal and add changes to this tab that will be seen only by you. Learn more ›
×
You can save this tab as Personal to edit and correct it or add notes. All changes will be seen only by you. Learn more »
launch autoscroll
font size
0
reset
guitar tuner
edit
Autoscroll
slow
fast
+/-
esc
set tempo
stop
Author
-------------------------------------------------------------------------------
			     Sun Spots - Nine Inch Nails
-------------------------------------------------------------------------------

Tabbed By :Kyle
e-mail: New song off of With Teeth

Tuning:Drop-D
Verses
G|---------------------------------------------------------------------------|
D|---------------------------------------------------------------------------|
A|---------------------------------------------------------------------------|
D|-1-1-1-2-2-2-2-2/5-0-0-0-0-0-0-0---------1-1-1-2-2-2-2/4-4-5-0-0-0-0-0-0---|
Chorus
G|--------------------------------------------------------------------------|
D|--------------------------------------------------------------------------|
A|-3-5-------------3-5------------------------------------------------------|
D|------3-3-5-5-5-------0-3-0-0---------------------------------------------|


This is a new song the verses and chorus are repetative so liten to the song to 
how many times to play. This is my first tab so take it easy on me.

| /  slide up
| \  slide down
| h  hammer-on
| p  pull-off
| ~  vibrato
| +  harmonic
| x  Mute note
===============================================================================

            
            
Suggest correction
Creating personal tab
Creating personal tab
You can edit any tab online and save it as your Personal.

You can edit, replace or remove any tab part or add personal notes – all changes will be seen only by you.

Personal tabs can be accessed anytime from any device, even offline.
Learn more »
comments
print report bad tab
5 comments total. Showing first comments.
0 reply
spegma 10 Oct 27, 2005 12:53 PM

Nice tab. Easy to follow. thanks

0 reply
Bakes117 10 Nov 14, 2007 06:23 AM

The chorus is a bit off in the tab above, here is what i played instead...i think its a bit more
accurate!

G|-------------------------------|
D|-------------------------------|
A|-2-4-----------0-2-------------|

D|------3-3-5-5-------0-3-0-0----|

0 reply
Bakes117 10 Nov 14, 2007 06:23 AM

The chorus is a bit off in the tab above, here is what i played instead...i think its a bit more
accurate!

G|-------------------------------|
D|-------------------------------|
A|-2-4-----------0-2-------------|

D|------3-3-5-5-------0-3-0-0----|

guest
You may want to rate the tab now too:
select rating
Wanna post a correction for this tab? Suggest correction