Oops, an error
Loading. Please wait.

Sunspots bass

version 1
version 1

Whole song

4,089 views 3 this week
4 commentsread comments
1 2 3 4 5
x 7
add to favorites
×
Save as Personal and add changes to this tab that will be seen only by you. Learn more ›
×
You can save this tab as Personal to edit and correct it or add notes. All changes will be seen only by you. Learn more »
launch autoscroll
font size
0
reset
guitar tuner
edit
Autoscroll
slow
fast
+/-
esc
set tempo
stop
Difficulty
intermediate
Intro
G|---------------------------------------------------------------------------|
D|---------------------------------------------------------------------------|
A|---------------------------------------------------------------------------|
D|-2-2-2-3-3-3-3-3-3-0-0-0-0-0-0-0---------2-2-2-3-3-3-3-3-3-0-0-0-0-0-0-0---| (Repeat x4)
Verses
G|---------------------------------------------------------------------------|
D|---------------------------------------------------------------------------|
A|---------------------------------------------------------------------------|
D|-2-2-2-3-3-3-3-3-3-0-0-0-0-0-0-0---------2-2-2-3-3-3-5-5-6-0-0-0-0-0-0-0---|  (Repeat x4)
Chorus
G|--------------------------------------------------------------------------|
D|--------------------------------------------------------------------------|
A|-2-4-------------1-2------------------------------------------------------|
D|------3-3-5-5-------0-3-0-0-----------------------------------------------|   (Repeat x2)
Verses
G|---------------------------------------------------------------------------|
D|---------------------------------------------------------------------------|
A|---------------------------------------------------------------------------|
D|-2-2-2-3-3-3-3-3-3-0-0-0-0-0-0-0---------2-2-2-3-3-3-5-5-6-0-0-0-0-0-0-0---|  (Repeat x2)
Verses Louder
G|---------------------------------------------------------------------------|
D|---------------------------------------------------------------------------|
A|---------------------------------------------------------------------------|
D|-2-2-2-3-3-3-3-3-3-0-0-0-0-0-0-0---------2-2-2-3-3-3-5-5-6-0-0-0-0-0-0-0---| 

G|---------------------------------------------------------------------------|
D|---------------------------------------------------------------------------|
A|---------------------------------------------------------------------------|
D|-2-2-2-3-3-3-3-3-3-0-0-0-0-0-0-0---------2-2-2-3-3-3-10-10-12-12-12-12-12-12-12-12---| 
Chorus
G|--------------------------------------------------------------------------|
D|--------------------------------------------------------------------------|
A|-2-4-------------1-2------------------------------------------------------|
D|------3-3-5-5-------0-3-0-0-----------------------------------------------|   (Repeat x4)

Long pause

Chorus
G|--------------------------------------------------------------------------|
D|--------------------------------------------------------------------------|
A|-2-4-------------1-2------------------------------------------------------|
D|------3-3-5-5-------0-3-0-0-----------------------------------------------|   (Repeat x6)

outro
G|---------------------------------------------------------------------------|
D|---------------------------------------------------------------------------|
A|---------------------------------------------------------------------------|
D|-2-2-2-3-3-3-3-3-3-0-0-0-0-0-0-0---------2-2-2-3-3-3-3-3-3-0-0-0-0-0-0-0---| (Repeat x2)

            
            
Suggest correction
Creating personal tab
Creating personal tab
You can edit any tab online and save it as your Personal.

You can edit, replace or remove any tab part or add personal notes – all changes will be seen only by you.

Personal tabs can be accessed anytime from any device, even offline.
Learn more »
comments
print report bad tab
4 comments total. Showing first comments.
0 reply
xmari3nx 31 May 29, 2008 09:39 PM

this is wrong on the intro he is hitting it 8 times then a different fret

0 reply
tabmax1718 10 May 25, 2014 07:45 PM

the chorus is wrong

0 reply
tabmax1718 10 May 25, 2014 07:45 PM

the chorus is wrong

guest
Wanna post a correction for this tab? Suggest correction