Oops, an error
Loading. Please wait.

Survivalism tab

version 3
version 3

Whole song

Interactive

7,034 views 1 this week
1 commentread comment
1 2 3 4 5
x 4
add to favorites
×
Save as Personal and add changes to this tab that will be seen only by you. Learn more ›
×
You can save this tab as Personal to edit and correct it or add notes. All changes will be seen only by you. Learn more »
launch autoscroll
font size
0
reset
how to read this tab
guitar tuner
backing track
0:00
0:00
edit
Autoscroll
slow
fast
+/-
esc
set tempo
stop
Author
Bass intro:
     
G|----------------------------------|
D|----------------------------------|
A|-0-0-0-0-0-0-0---0-0-0-0-0-0-0----|
E|----------------------------------|


Verse:
e|----------------------------------|
b|----------------------------------|
G|----------------------------------|
D|----------------------------------|
A|-0-0-0-0-0-0-0---0-0-0-0-0-0-0----|
E|----------------------------------|


Chorus:

 Gtr 1
e|----------------------------------|
b|----------------------------------|
G|-7-7-7-7-7-7-7---5-5-5-5-5-5-5----|
D|-7-7-7-7-7-7-7---5-5-5-5-5-5-5----|
A|-5-5-5-5-5-5-5---3-3-3-3-3-3-3----|
E|----------------------------------|

e|----------------------------------|
b|----------------------------------|
G|-2-2-2-2-2-2-2---2-2-2-2-2-2-2----|
D|-2-2-2-2-2-2-2---2-2-2-2-2-2-2----|
A|-0-0-0-0-0-0-0---0-0-0-0-0-0-0----|
E|----------------------------------|


 Gtr2

   x8      x8
e|------------------|
b|------------------|
G|-12------13-------|
D|------------------|
A|-10------11-------|
E|------------------|



Outro:

   x3 x11     x3 x11     x3 x11    x3 x7  x4
e|---------------------------------------------|
b|---------------------------------------------|
G|-14--12-----11--17-----9--10-----7--6--------|
D|---------------------------------------------|
A|-12--10-----9---15-----7--8------5--4----0---|
E|---------------------------------------------|
Suggest correction
Creating personal tab
Creating personal tab
You can edit any tab online and save it as your Personal.

You can edit, replace or remove any tab part or add personal notes – all changes will be seen only by you.

Personal tabs can be accessed anytime from any device, even offline.
Learn more »
comments
print report bad tab
1 comment total.
0 reply
nin_freak92 31 Mar 21, 2007 08:30 PM

pretty good job, u got all of the main guitar parts in the song...although i think there are a few other slight ones, but yeah, 5 stars. super easy though, haha.

guest
You may want to rate the tab now too:
select rating
Wanna post a correction for this tab? Suggest correction