Oops, an error
Loading. Please wait.

The Becoming bass

version 2
version 2

Whole song

Interactive

2,112 views 1 this week
1 commentread comment
1 2 3 4 5
x 4
add to favorites
×
Save as Personal and add changes to this tab that will be seen only by you. Learn more ›
×
You can save this tab as Personal to edit and correct it or add notes. All changes will be seen only by you. Learn more »
launch autoscroll
font size
0
reset
guitar tuner
edit
Autoscroll
slow
fast
+/-
esc
set tempo
stop
Difficulty
G|---------------------------------------------------------|
D|---------------------------------------------------------|
A|---------------------------4-3---------------------------|
E|-3-(3)-3-3-r-4-4-1-3-4-1-3-----3-(3)-3-3-r-4-4-1-1-1-1-1-|

repeat ad nauseum

It's 8/8 and 6/8 alternating time. For non-music-readers, all that means is the timing
"fucked up"... just treat every note of the tab like a quarter note and don't rest
measures and you should be fine.

Rate the shit!

AND for the record, there is no bass in the acoustic part, but if you want to do
with it the bass notes are:

E\-------------------------------------------------|
A\-------------------------------------------------|
D\-------------------------3-3-3-3-x-x-1-1-1-1-x-x-|
G\-3-3-3-3-x-x-1-1-1-1-x-x-------------------------|

G\-------------------------------------------------|
D\-------------------------------------------------|
A\-------------3-3-3-3-x-x-------------------------|
E\-1-1-1-1-x-x-------------1-x-x-1-x-x-x-x-x-r-x-x-|

or even, if you're feelin' ballsy:

G\-12-12-12-12-x-x-10-10-10-10-x-x-17-17-17-17-x-x-15-15-15-15-|
D\-12-12-12-12-x-x-10-10-10-10-x-x-17-17-17-17-x-x-15-15-15-15-|
A\-10-10-10-10-x-x-8 -8 -8 -8 -x-x-15-15-15-15-x-x-13-13-13-13-|
E\-------------------------------------------------------------|

G\10-10-10-10-x-x-17-17-17-17-x-x-10-x-x-10-x-x-x-x-x-r-x-x-|
D\10-10-10-10-x-x-17-17-17-17-x-x-10-x-x-10-x-x-x-x-x-r-x-x-|
A\8 -8 -8 -8 -x-x-15-15-15-15-x-x-8 -x-x-8 -x-x-x-x-x-r-x-x-
E\----------------------------------------------------------

THERE

DONE

Enjoy, Kids!

-KidA

            
            
Suggest correction
Creating personal tab
Creating personal tab
You can edit any tab online and save it as your Personal.

You can edit, replace or remove any tab part or add personal notes – all changes will be seen only by you.

Personal tabs can be accessed anytime from any device, even offline.
Learn more »
comments
print report bad tab
1 comment total.
0 reply
Raccio14 292 Dec 09, 2010 05:23 PM

Great tab. 8/8 and 6/8 alternating is a rather retarded way to look at 7/8 time though. it's just 7/8 with an interesting beat man.

guest
Wanna post a correction for this tab? Suggest correction