Oops, an error
Loading. Please wait.

The Beginning Of The End Bass Tab

version 1
version 1

Album

Whole song

Interactive

2,057 views 3 this week
no commentswrite comment
1 2 3 4 5
please rate
add to favorites
launch autoscroll
font size
0
reset
guitar tuner
Autoscroll
slow
fast
+/-
esc
set tempo
stop
Help us to improve Ultimate-Guitar.com Take our survey!
×
Author
Difficulty
novice
1:01 à 1:51

G|--------------------------------------------------------------------------|
D|--------------------------------------------------------------------------|
A|--------------------------------------------------------------------------|
E|8-8-8-8-10-10-10----------------------------------------------------------|   x7

G|--------------------------------------------------------------------------|
D|--------------------------------------------------------------------------|
A|--------------------------------------------------------------------------|
E|8-8-8-8-6-6-6----6-6-6-6-3-3-3----3-3-3-3-10-10-10-----8-8-8-8-10-10-10---|

G|--------------------------------------------------------------------------|
D|--------------------------------------------------------------------------|
A|--------------------------------------------------------------------------|
E|8-8-8-8-6-6-6----6-6-6-6-3-3-3----3-3-3-3---------------------------------|


1:58 à 2:33

G|--------------------------------------------------------------------------|
D|--------------------------------------------------------------------------|
A|--------------------------------------------------------------------------|
E|8-8-8-8-10-10-10----------------------------------------------------------|   x4

G|--------------------------------------------------------------------------|
D|--------------------------------------------------------------------------|
A|--------------------------------------------------------------------------|
E|8-8-8-8-6-6-6----6-6-6-6-3-3-3----3-3-3-3-10-10-10-----8-8-8-8-10-10-10---|

G|--------------------------------------------------------------------------|
D|--------------------------------------------------------------------------|
A|--------------------------------------------------------------------------|
E|8-8-8-8-6-6-6----6-6-6-6-3-3-3----3-3-3-3---------------------------------|
Suggest correction
Give kudos to tab author, rate the tab!
1 2 3 4 5
comments
print report bad tab
guest
You may want to rate the tab now too:
select rating
Please do not post tabs as comments. Select "correction" instead!