Oops, an error
Loading. Please wait.

The Day The World Went Away chords

version 1
version 1

Whole song

Interactive

Video

1,285 views 18 this week
no commentswrite comment
1 2 3 4 5
1 last vote to show rating
add to favorites
×
Save as Personal and add changes to this tab that will be seen only by you. Learn more ›
×
You can save this tab as Personal to edit and correct it or add notes. All changes will be seen only by you. Learn more »
launch autoscroll
font size
0
reset
transpose
0
reset
display chords
guitar tuner
edit
Autoscroll
slow
fast
+/-
esc
set tempo
stop
Author
Strumming
There is no strumming pattern for this song yet. and get +5 IQ
Tabbed By: AfroDJ
Email:malik_Wisdom@hotmail.com

         (Intro)
       C#,B,E,F#  x8

Most of the song is instrumental, following the same chords through out
                     Verse Tab
E|-------------------------------------------------------------------|
B|-------------------------------------------------------------------|
G|-------------------------------------------------------------------|
D|-------------------------------------------------------------------|
A|-4-4-4-4-4-4-4-4-2-2-2-2-2-2-2-2---------------------------------2-|
E|---------------------------------0-0-0-0-0-0-0-0-2-2-2-2-2-2-2-2---|x4


                 Chorus  Tab
e|-------------------------------------------------------------------|
B|-------------------------------------------------------------------|
G|-6-6-6-6-6-6-6-6-4-4-4-4-4-4-4-4-----------------------------------|
D|-6-6-6-6-6-6-6-6-4-4-4-4-4-4-4-4-2-2-2-2-2-2-2-2-4-4-4-4-4-4-4-4-7-|
A|-4-4-4-4-4-4-4-4-2-2-2-2-2-2-2-2-2-2-2-2-2-2-2-2-4-4-4-4-4-4-4-4-7-|
E|---------------------------------0-0-0-0-0-0-0-0-2-2-2-2-2-2-2-2-5-|
        
         Chorus

C#         B                    E
I'd listen to the words he'd say
           F#
but in his voice I heard decay
C#          B                    E
the plastic face forced to portray
           F#
all the insides left cold and gray
C#         B                       E
there is a place that still remains
            F#
it eats the fear it eats the pain
C#           B                      E
the sweetest price he'll have to pay
             F#
the day the whole world went away

Outro

C#,B,E,F#

            
            
Suggest correction
Creating personal tab
Creating personal tab
You can edit any tab online and save it as your Personal.

You can edit, replace or remove any tab part or add personal notes – all changes will be seen only by you.

Personal tabs can be accessed anytime from any device, even offline.
Learn more »
Give kudos to tab author, rate the tab!
1 2 3 4 5
comments
print report bad tab
guest
You may want to rate the tab now too:
select rating
Wanna post a correction for this tab? Suggest correction