Oops, an error
Loading. Please wait.

The Downward Spiral tab

version 2
version 2

Whole song

Interactive

3,771 views 12 this week
1 commentread comment
1 2 3 4 5
1 last vote to show rating
add to favorites
×
Save as Personal and add changes to this tab that will be seen only by you. Learn more ›
×
You can save this tab as Personal to edit and correct it or add notes. All changes will be seen only by you. Learn more »
launch autoscroll
font size
0
reset
how to read this tab
guitar tuner
edit
Autoscroll
slow
fast
+/-
esc
set tempo
stop
Author
Difficulty
The Downward Spiral
Nine Inch Nails

Ok heres the piano part for guitar. Im gonna put it up as a power tab soon if anyone 
the actual piano score :-)

Intro/ first part

e|---------------------------------|
B|---------------------------------|
G|---------------------------------|
D|-9-7~---7-6~---5-4~--------------| repeat this a few times
A|----------------------5-5-4-7-0~-|
E|---------------------------------|

Ok when the screams kick in in the background and trent starts singing the piano is the 
but its played an octave higher;

Second part

e|------------------------------------|
B|-12-10~---10-9~---8-7~--------------|
G|-------------------------7-7-6-9----|
D|---------------------------------7~-|
A|------------------------------------|
E|------------------------------------|

~ let ring

            
            
Suggest correction
Creating personal tab
Creating personal tab
You can edit any tab online and save it as your Personal.

You can edit, replace or remove any tab part or add personal notes – all changes will be seen only by you.

Personal tabs can be accessed anytime from any device, even offline.
Learn more »
Give kudos to tab author, rate the tab!
1 2 3 4 5
comments
print report bad tab
1 comment total.
0 reply
theinverse 10 Jun 28, 2007 11:21 AM

good job i like this one ^_^ it would be cool if sum1 would make an acoustic translation to this....

guest
You may want to rate the tab now too:
select rating
Wanna post a correction for this tab? Suggest correction