Oops, an error
Loading. Please wait.

The Hand That Feeds Tab

version 1
version 1
16,195 views 36 this week
no commentswrite comment
1 2 3 4 5
please rate
add to favorites
launch autoscroll
font size
0
reset
how to read this tab
guitar tuner
Autoscroll
slow
fast
+/-
esc
set tempo
stop
Help us to improve Ultimate-Guitar.com Take our survey!
×
Author
-------------------------------------------------------------------------------
                             The Hand That Feeds - Nine Inch Nails
-------------------------------------------------------------------------------

This is a pretty easy song.  It's good practice to transcribe the song by yourself,
as it is relatively easy to figure out.  But if you can't, or you just don't want to,
here it is:
(and the order of the parts is at the bottom)

Tabbed by: SlauterHouZe101
Email: Zjbpost@aol.com

Tuning: Standard

CHORUS
e|---------------------------------------------------------------------------|
B|---------------------------------------------------------------------------|
G|---17----16----14----12----18b19b18----18----18b19b18----18----------------|
D|----x-----x-----x-----x-----x--x--x-----x-----x--x--x-----x----------------|
A|---15----14----12----10----16b17b16----16----16b17b16----16----------------|
E|--(x12)--(x4)--(x8)--(x8)--------------(x14)-------------(x14)-------------|

e|---------------------------------------------------------------------------|
B|---------------------------------------------------------------------------|
G|---17----16----14----12----------------------------------------------------|
D|----x-----x-----x-----x----------------------------------------------------|
A|---15----14----12----10----------------------------------------------------|
E|--(x12)--(x4)--(x8)--(x8)--------------------------------------------------|

VERSE
e|---------------------------------------------------------------------------|
B|---------------------------------------------------------------------------|
G|---------------------------------------------------------------------------|
D|---5--7--7--5--7--10-------------------------------------------------------|
A|---5--7--7--5--7--10-------------------------------------------------------|
E|---3--5--5--3--5--8--------------------------------------------------------|

Synthesizer Solo 1
e|---------------------------------------------------------------------------|
B|---------------------------------------------------------------------------|
G|---------------------------------------------------------------------------|
D|---7-----7-----7------7------7---10---7---10---7---12---7------------------|
A|------0-----0-----10-----10--------------------------------10--------------|
E|---------------------------------------------------------------------------|

e|---------------------------------------------------------------------------|
B|---------------------------------------------------------------------------|
G|---------------------------------------------------------------------------|
D|---7-----7-----7---10---7---10---7---12---7---12---7------7----------------|
A|------0-----0-----------------------------------------10----10-------------|
E|---------------------------------------------------------------------------|

Synthesizer Solo 2 (play it on the "+" beats of 1 + 2 + 3 + 4 +)
(sliding into the note from below gives it a nice effect)
e|---------------------------------------------------------------------------|
B|---10--10--8--8--13--13--15--8--10--10--3--3--5--5-------------------------|
G|----------------------------------------------------2----------------------|
D|---------------------------------------------------------------------------|
A|---------------------------------------------------------------------------|
E|---------------------------------------------------------------------------|

OR you can play it like this (or any way you want)
e|-----------------8--8--10--------------------------------------------------|
B|---10--10--8--8------------8--10--10---------------------------------------|
G|--------------------------------------7--7--9--9---------------------------|
D|--------------------------------------------------7------------------------|
A|---------------------------------------------------------------------------|
E|---------------------------------------------------------------------------|

OUTRO (fades out)
e|---------------------------------------------------------------------------|
B|---------------------------------------------------------------------------|
G|---9-9-7--9-9-7--9-9-7--9-9-7----------------------------------------------|
D|---------------------------------------------------------------------------|
A|---------------------------------------------------------------------------|
E|---------------------------------------------------------------------------|

Song Order:

Bass Intro
Singing Enters (Guitar does not come in yet)
Chorus
Verse (palm-muted) x12
Chorus
Synth Solo 1 x4
Synth Solo 2 x3  w/ Guitar playing the chorus
Guitar Break
Verse (palm-muted) x8
Verse (palm-muted) x8  (at the start of this verse, skip the first chord (G5))
Verse (unmuted) x8
Outro

| b  bend
| x  Mute note
===============================================================================
Suggest correction
What's this?
You can suggest a correction to this tab. Community and Mods will review your correction and vote to approve or reject it.
comments
We did not receive enough feedback on this tab! Please rate:
print report bad tab
1 2 3 4 5
guest
You may want to rate the tab now too:
select rating
Please do not post tabs as comments. Select "correction" instead!