Oops, an error
Loading. Please wait.

The Hand That Feeds Tab

version 1
version 1

Whole song

Interactive

20,286 views 48 this week
5 commentsread comments
1 2 3 4 5
x 8
add to favorites
launch autoscroll
font size
0
reset
how to read this tab
guitar tuner
backing track
0:00
0:00
Autoscroll
slow
fast
+/-
esc
set tempo
stop
-------------------------------------------------------------------------------
                             The Hand that Feeds - Nine Inch Nails
-------------------------------------------------------------------------------
Tabbed by: Remco Timmermans (Pupule Paniolo)
Email:Released88@hotmail.com

Notes: This is my first tab, it's for the hot new NIN record The Hand That Feeds!
I think the riffs are played this way, the 'solo' might have a different last note, I 
this one's correct,
but I'm not sure...Also the other guitar you can hear I'm still figuring that one out, 
for now, enjoy playing along
with the main riffs just like I am !

Tuning: Standard (E A D G B e)

Intro (fading in)
e|---------------------------------------------------------------|
B|---------------------------------------------------------------|
G|---------------------------------------------------------------|
D|---------------------------------------------------------------|
A|---------------------------------------------------------------|
E|--3---5-5---3---5---8------------------------------------------|

Play first part until the first chorus with the E string only...

Chorus
e|---------------------------------------------------------------|
B|---------------------------------------------------------------|
G|---------------------------------------------------------------|
D|---------------------------------------------------------------|
A|---------------------------------------------------------------|
E|--1-1-1-1-1-1--0-0-0-0-0-0--2-2-2-2-2-3-3-3-3-3-3---5-5-3-5--8-|

if you listen to the record you can hear him play the base rythym of the song a few times,
then switching back to the beginning of this chorus tab...to bridge them you can hit the chord
at the 3rd fret on the E and the 5th fret on the A and D strings...

Base riff
e|---------------------------------------------------------------|
B|---------------------------------------------------------------|
G|---------------------------------------------------------------|
D|--5----7-7---5---7---10----------------------------------------|
A|--5----7-7---5---7---10----------------------------------------|
E|--3----5-5---3---5----8----------------------------------------|

This is whats played mostly throughout the song, it's actually the intro, but then powerchords

After the synthesizer keyboard notes where trent sings a part, he ends it with:
"and on and on and on and on and on!!!" There you can hear the 'solo' part, it uses
an effect that you can try to get by playing around with the notes, bend em, slide em a bit...
Do what you like, after all, you're in control now :)

'solo'
e|---5--5--3--3--8--8--9--3--5--5--------------------------------|
B|----------------------------------3--3--5--5-------------------|
G|----------------------------------------------3--3-------------|
D|---------------------------------------------------------------|
A|---------------------------------------------------------------|
E|---------------------------------------------------------------|

Like I said, not sure on the last notes of this 'solo' part, might also be the 4th fret...
If anyone knows feel free to email me, Im just a fan too, trying to play along!


Most of all enjoy playing it and rock it out of your guitar, it's nine inch nails, so 
means
close your eyes, imagine you standing there and play the whole godforsaken thing with 
:)


Any comments, ideas, improvements to this tab are very welcome at my email adress:
Released88@hotmail.com


| /  slide up
| \  slide down
| h  hammer-on
| p  pull-off
| ~  vibrato
| +  harmonic
| x  Mute note
===============================================================================
Suggest correction
comments
print report bad tab
5 comments total. Showing first comments.
0 reply
rockable 10 Apr 16, 2005 08:00 PM

nice...

0 reply
rockable 10 Apr 16, 2005 08:00 PM

too bad u suck cus this is totaly wrong...have u ever even heard the song?

-1 reply
rich_sg 30 Oct 09, 2005 12:59 AM

Solo is wrong.

E-5-5-3-3-8-8-10-3-5-5---------
B----------------------1-1-0-0- Is closer to the mark
G------------------------------
D------------------------------
A------------------------------
E------------------------------

guest
You may want to rate the tab now too:
select rating
Wanna post a correction for this tab? Suggest correction