Oops, an error
Loading. Please wait.

The Only Time bass

version 2
version 2

Whole song

Interactive

1,290 views 1 this week
no commentswrite comment
1 2 3 4 5
3 more votes to show rating
add to favorites
×
Save as Personal and add changes to this tab that will be seen only by you. Learn more ›
×
You can save this tab as Personal to edit and correct it or add notes. All changes will be seen only by you. Learn more »
launch autoscroll
font size
0
reset
guitar tuner
edit
Autoscroll
slow
fast
+/-
esc
set tempo
stop
Author
----------------------------------------------------------------------------
		   THE ONLY TIME – Nine Inch Nails
----------------------------------------------------------------------------

Tabbed By : sm1l3l0z3r
e-mail: dclewis@siu.edu

Tuning: standard

| /  slide up
| \  slide down
| h  hammer-on
| p  pull-off
| ~  hold
| +  harmonic
| x  Mute note

Verse:
G|-----(2)-----------|
D|-----------0-0-----|   x3
A|--0-0----------3---|
E|-------------------|

G|-----(2)---------------|
D|-----------0-0---------|
A|--0-0----------3—-5/7--|
E|-----------------------|

G|--------0---------------------0-----------|
D|-------------0-0-------------------0-0----|
A|--0-0--3---------3------0-0--3---------3--|
E|------------------------------------------|

G|-------------------------------|
D|--------0-0-------------0-0----|
A|--0-0-------3-----0-0-------3--|
E|-------------------------------|

Chorus:
(It’s a little hard to hear the actual bass, but I think it’s just does this.)
G|-------------------------|
D|-------------------------|
A|-------------------------|
E|----0--------0--------0--|


-during the second verse you randomly get the (2) on the G string, just listen for when
comes in, I play it everytime but hey that’s just me. That is pretty much the whole
during the break that’s about 3 minutes into the song you play the chorus part. Well, 
my look on this song, I’m sorry if it’s wrong or anything to you, it’s my first tab.
guys!

=============================================================================

            
            
Suggest correction
Creating personal tab
Creating personal tab
You can edit any tab online and save it as your Personal.

You can edit, replace or remove any tab part or add personal notes – all changes will be seen only by you.

Personal tabs can be accessed anytime from any device, even offline.
Learn more »
Give kudos to tab author, rate the tab!
1 2 3 4 5
comments
print report bad tab
guest
You may want to rate the tab now too:
select rating
Wanna post a correction for this tab? Suggest correction