Oops, an error
Loading. Please wait.

With Teeth Tab

version 2
version 2
1,790 views 1 this week
no commentswrite comment
1 2 3 4 5
please rate
add to favorites
launch autoscroll
font size
0
reset
how to read this tab
guitar tuner
Autoscroll
slow
fast
+/-
esc
set tempo
stop
Help us to improve Ultimate-Guitar.com Take our survey!
×
Author
Difficulty
Tuning
novice
D A D G B E
With Teeth
tabbed by maximushyrule

this song has a weird pattern that i tried to imitate

|----------------------|		|----------------------|
|----------------------|		|----------------------|
|--7-7-7-7/5---5/12----|		|--7-7-7/8/7-7-7/8-----|
|----------------------|		|--------/--/----------|
|--5-5-5-5/3---3/10----|		|--5-5-5/6/5-5-5/6-----|
|----------------------|		|----------------------|

|-----------------------  |------------------------------------|
|-----------------------  |------------------------------------|
|-7-7-7-7/5--5/12-------  |-7-7-7/8/7-7-7/8-7-7-7/5--5/12------|
|-----------------------  |------------------------------------|
|-5-5-5-5/3--3/10-------  |5-5-5/6/5-5-5/6-5-5-5/3--3/10-------|
|-----------------------  |------------------------------------|

|-------------------------------------------------|
|-------------------------------------------------|
|-7-7-7-7/5--5/12---12-12-12-12/13/12-11----------|
|-------------------------------------------------|
|-5-5-5-5/3--3/10---10-10-10-10/11/10--9----------|
|-------------------------------------------------|
Suggest correction
Give kudos to tab author, rate the tab!
1 2 3 4 5
comments
print report bad tab
guest
You may want to rate the tab now too:
select rating
Please do not post tabs as comments. Select "correction" instead!