Oops, an error
Loading. Please wait.

Anthem Of The Lonely bass

version 1
version 1

Whole song

Interactive

609 views 1 this week
2 commentsread comments
1 2 3 4 5
2 more votes to show rating
add to favorites
×
Save as Personal and add changes to this tab that will be seen only by you. Learn more ›
×
You can save this tab as Personal to edit and correct it or add notes. All changes will be seen only by you. Learn more »
launch autoscroll
font size
0
reset
guitar tuner
edit
Autoscroll
slow
fast
+/-
esc
set tempo
stop
Tuning is drop Bb, same as drop A# which is the option in the UG list of tunings, but drop Bb
is the better way to name it.

INTRO (FIRST PART)

Eb|--------------------------------------------------------------------------|
Bb|--------------------------------------------------------------------------|
F |--------------------------------------------------------------------------|
Bb|-12---12---7-8---8---11-7---7---5-8--8-7--7-12--12-7-8--8-11-7--7-5-8---8-|

BREAK FOR 1 SECOND, THEN SECOND PART OF INTRO

Eb|-----------------------------------------------------|
Bb|-----------------------------------------------------|
F |-----------------------------------------------------|
Bb|-12-12-12-12-12-7-8-8-8-8-8-10-7-7-7-7-7-5-8-8-7-7-7-|

VERSE

Eb|--------------------------------------|
Bb|--------------------------------------| 8 TIMES
F |--------------------------------------|
Bb|-0-0-0-0--0-0-0-0----0-0-0-0--0-0-0-0-|

PRE-CHORUS

Eb|------------------------------------------------------------------------------------------|
Bb|------------------------------------------------------------------------------------------|
F |------------------------------------------------------------------------------------------|
Bb|-0----0-0-0-7-5---0-0-7-5-3---0-3-0-3--8-5-7-3-0---0-0-0-7-5---0-5-0-5-3---0-3-0-3--8-5-7-|

CHORUS

Eb|------------------------------------------------------------|
Bb|------------------------------------------------------------|
F |------------------------------------------------------------|
Bb|-0----3-0-5---7-8---8-5-7---3-0---3-0-5---7-8---8-5-5-7-3-0-|

SECOND PART OF INTRO AGAIN

Eb|-----------------------------------------------------|
Bb|-----------------------------------------------------|
F |-----------------------------------------------------|
Bb|-12-12-12-12-12-7-8-8-8-8-8-10-7-7-7-7-7-5-8-8-7-7-7-|

VERSE AGAIN

Eb|--------------------------------------|
Bb|--------------------------------------| 8 TIMES
F |--------------------------------------|
Bb|-0-0-0-0--0-0-0-0----0-0-0-0--0-0-0-0-|

PRE-CHORUS AGAIN

Eb|------------------------------------------------------------------------------------------|
Bb|------------------------------------------------------------------------------------------|
F |------------------------------------------------------------------------------------------|
Bb|-0----0-0-0-7-5---0-0-7-5-3---0-3-0-3--8-5-7-3-0---0-0-0-7-5---0-5-0-5-3---0-3-0-3--8-5-7-|

CHORUS AGAIN

Eb|------------------------------------------------------------|
Bb|------------------------------------------------------------|
F |------------------------------------------------------------|
Bb|-0----3-0-5---7-8---8-5-7---3-0---3-0-5---7-8---8-5-5-7-3-0-|

BRIDGE

Eb|-----------------------------------------------------------------|
Bb|-----------------------------------------------------------------|
F |-----------------------------------------------------------------|
Bb|-0-0-0-0-0-0-0-0-0-0-0-0-0-0-0-0-3-3-3-3-3-3-3-3-3-3-3-3-3-3-3-3-|

Eb|-------------------------------------------------------------------------|
Bb|-------------------------------------------------------------------------|
F |-------------------------------------------------------------------------|
Bb|-5-5-5-5-5-5-5-5-5-5-5-5-5-5-5-5-8-8-8-8-8-8-8-8-10-10-10-10-10-10-10-10-|

BREAK FOR 20 SECONDS

THEN REPEAT CHORUS AND SECOND PART OF INTRO

Eb|------------------------------------------------------------|
Bb|------------------------------------------------------------|
F |------------------------------------------------------------|
Bb|-0----3-0-5---7-8---8-5-7---3-0---3-0-5---7-8---8-5-5-7-3-0-|

Eb|-----------------------------------------------------|
Bb|-----------------------------------------------------|
F |-----------------------------------------------------|
Bb|-12-12-12-12-12-7-8-8-8-8-8-10-7-7-7-7-7-5-8-8-7-7-7-|

And you are great!
Suggest correction
Creating personal tab
Creating personal tab
You can edit any tab online and save it as your Personal.

You can edit, replace or remove any tab part or add personal notes – all changes will be seen only by you.

Personal tabs can be accessed anytime from any device, even offline.
Learn more »
Give kudos to tab author, rate the tab!
1 2 3 4 5
comments
print report bad tab
2 comments total.
0 reply
jrarmstro 753 Feb 02, 2017 12:44 PM

Should be an A#

0 reply
Cryard 814 May 21, 2017 05:44 AM

What is that fith string for? lol

guest
You may want to rate the tab now too:
select rating
Wanna post a correction for this tab? Suggest correction