Oops, an error
Loading. Please wait.

Dead Dog Highway Bass Tab

10 views 1 this week
no commentswrite comment
1 2 3 4 5
3 more votes to show rating
add to favorites
launch autoscroll
font size
0
reset
guitar tuner
Autoscroll
slow
fast
+/-
esc
set tempo
stop
Help us to improve Ultimate-Guitar.com Take our survey!
×
Author
Difficulty
Intro
G----------------------------------------------------------------------------------------------|
D----------------------------------------------------------------------------------------------|
A-------------------------------5-3-0-0-0-0-0-0--0-0-0-------0-0-0-0-0-0-0-0-0-5-3-0-0-0-0-0-0-|
E------------------------------------------------------3-3-3-----------------------------------|

Verse ("I'm Counting Dead Dogs On The Highway...")
G----------------------------------------------------------------------------------------------|
D----------------------------------------------------------------------------------------------|
A-0-0-0-------0-0-0-0-0-0-0-0-0-5-3-0-0-0-0-0-0--0-0-0-------0-0-0-0-0-0-0-0-0-5-3-0-0-0-0-0-0-|
E-------3-3-3------------------------------------------3-3-3-----------------------------------|

G----------------------------------------------------------------------------------------------|
D----------------------------------------------------------------------------------------------|
A-0-0-0-------0-0-0-0-0-0-0-0-0-5-3-0-0-0-0-0-0--0-0-0-------0-0-0-0-0-0-0-0-0-5-3-0-0-0-0-0-0-|
E-------3-3-3------------------------------------------3-3-3-----------------------------------|

Chorus ("You Can Almost Hear A Steel Guitar Playing...")
G-----------------------------------------------------------------------------------------------------------|
D-----------------------------------------------------------------------------------------------------------|
A-5-5-5-5-5-5-5-5-----------------5-5-5-5-5-5-5-----------------0-0-0-------0-0-0-0-0-0-0-0-5-3-0-0-0-0-0-0-|
E-----------------5-5-5-5-5-5-5-5---------------5-5-5-5-5-5-5-5------3-3-3----------------------------------|

G-----------------------------------------------------------------------------------------------|
D-----------------------------------------------------------------------------------------------|
A-0-0-0-------0-0-0-0-0-0-0-0-0-5-3-0-0-0-0-0-0--0-0-0-------0-0-0-0-0-0-0-0-0-5-3-0-0-0-0-0-0--|
E-------3-3-3------------------------------------------3-3-3------------------------------------|

Verse ("You Were An Angel The Day That I Met You")
G----------------------------------------------------------------------------------------------|
D----------------------------------------------------------------------------------------------|
A-0-0-0-------0-0-0-0-0-0-0-0-0-5-3-0-0-0-0-0-0--0-0-0-------0-0-0-0-0-0-0-0-0-5-3-0-0-0-0-0-0-|
E-------3-3-3------------------------------------------3-3-3-----------------------------------|

G----------------------------------------------------------------------------------------------|
D----------------------------------------------------------------------------------------------|
A-0-0-0-------0-0-0-0-0-0-0-0-0-5-3-0-0-0-0-0-0--0-0-0-------0-0-0-0-0-0-0-0-0-5-3-0-0-0-0-0-0-|
E-------3-3-3------------------------------------------3-3-3-----------------------------------|

Chorus ("This Road Could Go On Forever...")
G-----------------------------------------------------------------------------------------------------------|
D-----------------------------------------------------------------------------------------------------------|
A-5-5-5-5-5-5-5-5-----------------5-5-5-5-5-5-5-----------------0-0-0-------0-0-0-0-0-0-0-0-5-3-0-0-0-0-0-0-|
E-----------------5-5-5-5-5-5-5-5---------------5-5-5-5-5-5-5-5------3-3-3----------------------------------|

G-----------------------------------------------------------------------------------------------|
D-----------------------------------------------------------------------------------------------|
A-0-0-0-------0-0-0-0-0-0-0-0-0-5-3-0-0-0-0-0-0--0-0-0-------0-0-0-0-0-0-0-0-0-5-3-0-0-0-0-0-0--|
E-------3-3-3------------------------------------------3-3-3------------------------------------|

Chorus ("You Can Almost Hear A Steel Guitar Playing...")
G-----------------------------------------------------------------------------------------------------------|
D-----------------------------------------------------------------------------------------------------------|
A-5-5-5-5-5-5-5-5-----------------5-5-5-5-5-5-5-----------------0-0-0-------0-0-0-0-0-0-0-0-5-3-0-0-0-0-0-0-|
E-----------------5-5-5-5-5-5-5-5---------------5-5-5-5-5-5-5-5------3-3-3----------------------------------|

G-----------------------------------------------------------------------------------------------|
D-----------------------------------------------------------------------------------------------|
A-0-0-0-------0-0-0-0-0-0-0-0-0-5-3-0-0-0-0-0-0--0-0-0-------0-0-0-0-0-0-0-0-0-5-3-0------------|
E-------3-3-3------------------------------------------3-3-3------------------------------------|
Suggest correction
Give kudos to tab author, rate the tab!
1 2 3 4 5
comments
print report bad tab
guest
You may want to rate the tab now too:
select rating
Wanna post a correction for this tab? Suggest correction