Oops, an error
Loading. Please wait.

Dead Dog Highway Tab

28 views 3 this week
no commentswrite comment
1 2 3 4 5
3 more votes to show rating
add to favorites
launch autoscroll
font size
0
reset
how to read this tab
guitar tuner
Autoscroll
slow
fast
+/-
esc
set tempo
stop
Help us to improve Ultimate-Guitar.com Take our survey!
×
Author
Difficulty
intermediate
[Intro]


e|---------------------------------------------------------------------------------------------------|
B|---------------------------------------------------------------------------------------------------|
G|-------------------------------------7-5-------------------------------------------7-5-------------|
D|-------------------------------------7-5-------------------------------------------7-5-------------|
A|-------0-0-0-------0-0-0-------0-0-0-5-3-0-0-0-------0-0-0-------0-0-0-------0-0-0-5-3-0-0-0-0-0-0-|
E|-2-3-4-------3-3-3-------2-3-4-----------------2-3-4-------3-3-3-------2-3-4-----------------------|


[Verse 1]

 ("I'm Counting Dead Dogs On The Highway...")
e|----------------------------------------------------------------------------------------------|
B|----------------------------------------------------------------------------------------------|
G|-------------------------------7-5--------------------------------------------7-5-------------|
D|-2-2-2-------2-2-2-2-2-2-2-2-2-7-5-2-2-2-2-2-2-2-2-2--------2-2-2-2-2-2-2-2-2-7-5-2-2-2-2-2-2-|
A|-0-0-0-5-5-5-0-0-0-0-0-0-0-0-0-5-3-0-0-0-0-0-0-0-0-0-5-5-5--0-0-0-0-0-0-0-0-0-5-3-0-0-0-0-0-0-|
E|-------3-3-3-----------------------------------------3-3-3------------------------------------|

e|----------------------------------------------------------------------------------------------|
B|----------------------------------------------------------------------------------------------|
G|-------------------------------7-5--------------------------------------------7-5-------------|
D|-2-2-2-------2-2-2-2-2-2-2-2-2-7-5-2-2-2-2-2-2-2-2-2--------2-2-2-2-2-2-2-2-2-7-5-2-2-2-2-2-2-|
A|-0-0-0-5-5-5-0-0-0-0-0-0-0-0-0-5-3-0-0-0-0-0-0-0-0-0-5-5-5--0-0-0-0-0-0-0-0-0-5-3-0-0-0-0-0-0-|
E|-------3-3-3-----------------------------------------3-3-3------------------------------------|


[Chorus]

 ("You Can Almost Hear A Steel Guitar Playing...")
e|-----------------0-0-0-0-0-0-0-0---------------0-0-0-0-0-0-0-0---------------------------------------------|
B|-3-3-3-3-3-3-3-3-2-2-2-2-2-2-2-2-3-3-3-3-3-3-3-2-2-2-2-2-2-2-2---------------------------------------------|
G|-2-2-2-2-2-2-2-2-2-2-2-2-2-2-2-2-2-2-2-2-2-2-2-2-2-2-2-2-2-2-2-----------------------------7-5-------------|
D|-0-0-0-0-0-0-0-0-2-2-2-2-2-2-2-2-0-0-0-0-0-0-0-2-2-2-2-2-2-2-2-2-2-2-------2-2-2-2-2-2-2-2-7-5-2-2-2-2-2-2-|
A|-----------------0-0-0-0-0-0-0-0---------------0-0-0-0-0-0-0-0-0-0-0-5-5-5-0-0-0-0-0-0-0-0-5-3-0-0-0-0-0-0-|
E|---------------------------------------------------------------------3-3-3---------------------------------|

e|---------------------------------------------------------------------------------------------------|
B|---------------------------------------------------------------------------------------------------|
G|-------------------------------------7-5-------------------------------------------7-5-------------|
D|-------------------------------------7-5-------------------------------------------7-5-------------|
A|-------0-0-0-------0-0-0-------0-0-0-5-3-0-0-0-------0-0-0-------0-0-0-------0-0-0-5-3-0-0-0-0-0-0-|
E|-2-3-4-------3-3-3-------2-3-4-----------------2-3-4-------3-3-3-------2-3-4-----------------------|


[Verse 2]

 ("You Were An Angel The Day That I Met You")
e|----------------------------------------------------------------------------------------------|
B|----------------------------------------------------------------------------------------------|
G|-------------------------------7-5--------------------------------------------7-5-------------|
D|-2-2-2-------2-2-2-2-2-2-2-2-2-7-5-2-2-2-2-2-2-2-2-2--------2-2-2-2-2-2-2-2-2-7-5-2-2-2-2-2-2-|
A|-0-0-0-5-5-5-0-0-0-0-0-0-0-0-0-5-3-0-0-0-0-0-0-0-0-0-5-5-5--0-0-0-0-0-0-0-0-0-5-3-0-0-0-0-0-0-|
E|-------3-3-3-----------------------------------------3-3-3------------------------------------|

e|----------------------------------------------------------------------------------------------|
B|----------------------------------------------------------------------------------------------|
G|-------------------------------7-5--------------------------------------------7-5-------------|
D|-2-2-2-------2-2-2-2-2-2-2-2-2-7-5-2-2-2-2-2-2-2-2-2--------2-2-2-2-2-2-2-2-2-7-5-2-2-2-2-2-2-|
A|-0-0-0-5-5-5-0-0-0-0-0-0-0-0-0-5-3-0-0-0-0-0-0-0-0-0-5-5-5--0-0-0-0-0-0-0-0-0-5-3-0-0-0-0-0-0-|
E|-------3-3-3-----------------------------------------3-3-3------------------------------------|


[Chorus]

 ("This Road Could Go On Forever...")
e|-----------------0-0-0-0-0-0-0-0---------------0-0-0-0-0-0-0-0--------------------------------------------|
B|-3-3-3-3-3-3-3-3-2-2-2-2-2-2-2-2-3-3-3-3-3-3-3-2-2-2-2-2-2-2-2--------------------------------------------|
G|-2-2-2-2-2-2-2-2-2-2-2-2-2-2-2-2-2-2-2-2-2-2-2-2-2-2-2-2-2-2-2-----------------------------7-5------------|
D|-0-0-0-0-0-0-0-0-2-2-2-2-2-2-2-2-0-0-0-0-0-0-0-2-2-2-2-2-2-2-2-2-2-2-------2-2-2-2-2-2-2-2-7-5-2-2-2-2-2-2|
A|-----------------0-0-0-0-0-0-0-0---------------0-0-0-0-0-0-0-0-0-0-0-5-5-5-0-0-0-0-0-0-0-0-5-3-0-0-0-0-0-0|
E|---------------------------------------------------------------------3-3-3--------------------------------|

e|---------------------------------------------------------------------------------------------------|
B|---------------------------------------------------------------------------------------------------|
G|-------------------------------------7-5-------------------------------------------7-5-------------|
D|-------------------------------------7-5-------------------------------------------7-5-------------|
A|-------0-0-0-------0-0-0-------0-0-0-5-3-0-0-0-------0-0-0-------0-0-0-------0-0-0-5-3-0-0-0-0-0-0-|
E|-2-3-4-------3-3-3-------2-3-4-----------------2-3-4-------3-3-3-------2-3-4-----------------------|


[Chorus]

 ("You Can Almost Hear A Steel Guitar Playing...")
e|-----------------0-0-0-0-0-0-0-0---------------0-0-0-0-0-0-0-0---------------------------------------------|
B|-3-3-3-3-3-3-3-3-2-2-2-2-2-2-2-2-3-3-3-3-3-3-3-2-2-2-2-2-2-2-2---------------------------------------------|
G|-2-2-2-2-2-2-2-2-2-2-2-2-2-2-2-2-2-2-2-2-2-2-2-2-2-2-2-2-2-2-2-----------------------------7-5-------------|
D|-0-0-0-0-0-0-0-0-2-2-2-2-2-2-2-2-0-0-0-0-0-0-0-2-2-2-2-2-2-2-2-2-2-2-------2-2-2-2-2-2-2-2-7-5-2-2-2-2-2-2-|
A|-----------------0-0-0-0-0-0-0-0---------------0-0-0-0-0-0-0-0-0-0-0-5-5-5-0-0-0-0-0-0-0-0-5-3-0-0-0-0-0-0-|
E|---------------------------------------------------------------------3-3-3---------------------------------|

e|---------------------------------------------------------------------------------------------------|
B|---------------------------------------------------------------------------------------------------|
G|-------------------------------------7-5-------------------------------------------7-5-2-----------|
D|-------------------------------------7-5-------------------------------------------7-5-2-----------|
A|-------0-0-0-------0-0-0-------0-0-0-5-3-0-0-0-------0-0-0-------0-0-0-------0-0-0-5-3-0-----------|
E|-2-3-4-------3-3-3-------2-3-4-----------------2-3-4-------3-3-3-------2-3-4-----------------------|
Suggest correction
Give kudos to tab author, rate the tab!
1 2 3 4 5
comments
print report bad tab
guest
You may want to rate the tab now too:
select rating
Wanna post a correction for this tab? Suggest correction