Oops, an error
Loading. Please wait.

Hayseed Timebomb Bass Tab

13 views 3 this week
no commentswrite comment
1 2 3 4 5
3 more votes to show rating
add to favorites
launch autoscroll
font size
0
reset
guitar tuner
Autoscroll
slow
fast
+/-
esc
set tempo
stop
Help us to improve Ultimate-Guitar.com Take our survey!
×
Intro
G-----------------------------------------------------------------------------|
D-----------------------------------------------------------------------------|
A-----------------------------------------------------------------------------|
E--------------------------5-5-5-5-5-5--5-5-5-5-5-5--5-5-5-5-5-5--5-5-5-5-5-5-|

Verse ("Got A One-Bedroom Trailer...")
G-----------------------------------------------------------------------------------------------------|
D-----------------------------------------------------------------------------------------------------|
A-5-5-5-5-5-5--5-5-5-5-5-5--------------------------5-5-5-5-5-5--5-5-5-5-5-5--------------------------|
E--------------------------5-5-5-5-5-5--5-5-5-5-5-5--------------------------5-5-5-5-5-5--5-5-5-5-5-5-|

G---------------------------------------------------|---------------------------------------------------|
D---------------------------------------------------|---------------------------------------------------|
A-7-7-7-7-7-7--5-5-5-5-5-5--------------------------|-5-5-5-5-5-5--5-5-5-5-5-5--------------------------|
E--------------------------5-5-5-5-5-5--5-5-5-5-5-5-|--------------------------5-5-5-5-5-5--5-5-5-5-5-5-|

G---------------------------------------------------|---------------------------------------------------|
D---------------------------------------------------|---------------------------------------------------|
A-5-5-5-5-5-5--5-5-5-5-5-5--------------------------|-7-7-7-7-7-7--5-5-5-5-5-5--------------------------|
E--------------------------5-5-5-5-5-5--5-5-5-5-5-5-|--------------------------5-5-5-5-5-5--5-5-5-5-5-5-|


Chorus ("He's a Hayseed Timebomb...")
G-----------------------------------------------------------------------------------------------------|
D-----------------------------------------------------------------------------------------------------|
A-5-5-5-5-5-5--5-5-5-5-5-5--------------------------5-5-5-5-5-5--5-5-5-5-5-5--------------------------|
E--------------------------5-5-5-5-5-5--5-5-5-5-5-5--------------------------5-5-5-5-5-5--5-5-5-5-5-5-|

G---------------------------------------------------|
D---------------------------------------------------|
A-7-7-7-7-7-7--5-5-5-5-5-5--------------------------|
E--------------------------5-5-5-5-5-5--5-5-5-5-5-5-|

Solo
G-----------------------------------------------------------------------------------------------------|
D-----------------------------------------------------------------------------------------------------|
A-5-5-5-5-5-5--5-5-5-4-2-4--------------------------5-5-5-5-5-5--5-5-5-4-2-4--------------------------|
E--------------------------5-5-5-4-2-4--5-5-5-4-2-4--------------------------5-5-5-4-2-4--5-5-5-4-2-4-|

G---------------------------------------------------|
D---------------------------------------------------|
A-7-7-7-7-7-7--5-5-5-4-2-4--------------------------|
E--------------------------5-5-5-4-2-4--5-5-5-4-2-4-|

Verse 2 ("He's Heading Into Town...")
G-----------------------------------------------------------------------------------------------------|
D-----------------------------------------------------------------------------------------------------|
A-5-5-5-5-5-5--5-5-5-5-5-5--------------------------5-5-5-5-5-5--5-5-5-5-5-5--------------------------|
E--------------------------5-5-5-5-5-5--5-5-5-5-5-5--------------------------5-5-5-5-5-5--5-5-5-5-5-5-|
                                               
G---------------------------------------------------|
D---------------------------------------------------|
A-7-7-7-7-7-7--5-5-5-5-5-5--------------------------|
E--------------------------5-5-5-5-5-5--5-5-5-5-5-5-|

Chorus ("He's a Hayseed Timebomb...")
G-----------------------------------------------------------------------------------------------------|
D-----------------------------------------------------------------------------------------------------|
A-5-5-5-5-5-5--5-5-5-5-5-5--------------------------5-5-5-5-5-5--5-5-5-5-5-5--------------------------|
E--------------------------5-5-5-5-5-5--5-5-5-5-5-5--------------------------5-5-5-5-5-5--5-5-5-5-5-5-|

G---------------------------------------------------|
D---------------------------------------------------|
A-7-7-7-7-7-7--5-5-5-5-5-5--------------------------|
E--------------------------5-5-5-5-5-5--5-5-5-5-5-5-|

Outro                                                   x3
G---------------------------------------------------------|
D---------------------------------------------------------|
A-7-7-7-7-7-7--5-5-5-5-4-2-4------------------------------|
E----------------------------5-5-5-5-4-2-4--5-5-5-5-4-2-4-|
Suggest correction
Give kudos to tab author, rate the tab!
1 2 3 4 5
comments
print report bad tab
guest
You may want to rate the tab now too:
select rating
Wanna post a correction for this tab? Suggest correction