Oops, an error
Loading. Please wait.

Slam Bang Bass Tab

7 views 3 this week
no commentswrite comment
1 2 3 4 5
3 more votes to show rating
add to favorites
launch autoscroll
font size
0
reset
guitar tuner
Autoscroll
slow
fast
+/-
esc
set tempo
stop
Help us to improve Ultimate-Guitar.com Take our survey!
×
Author
Difficulty
Verse ("Well your Arm Looks Like A Railroad Track...")
G-------------------------------------------------------------------------------------------------|
D-------------------------------------------------------------------------------------------------|
A-7-7-7-7-7-7-7-7-----------------7-7-7-7-7-7-7-7-----------------7-7-7-7-7-7-7-7-----------------|
E-----------------5-5-5-5-5-5-5-5-----------------7-7-7-7-7-7-7-7-----------------5-5-5-5-5-5-5-5-|

G---------------------------------|
D---------------------------------|
A-7-7-7-7---------7-7-7-7-7-7-7-7-|
E---------7-7-7-7-----------------|

Verse 2 ("You're Living On A Lunatic Fringe...")
G-------------------------------------------------------------------------------------------------|
D-------------------------------------------------------------------------------------------------|
A-7-7-7-7-7-7-7-7-----------------7-7-7-7-7-7-7-7-----------------7-7-7-7-7-7-7-7-----------------|
E-----------------5-5-5-5-5-5-5-5-----------------7-7-7-7-7-7-7-7-----------------5-5-5-5-5-5-5-5-|

G---------------------------------|
D---------------------------------|
A-7-7-7-7---------7-7-7-7-7-7-7-7-|
E---------7-7-7-7-----------------|

Chorus ("Slam Bang, Right Down The Main Line...")
G-------------------------------------------------------------------------------------------------|
D-------------------------------------------------------------------------------------------------|
A-7-7-7-7-7-7-7-7-----------------7-7-7-7-7-7-7-7-----------------7-7-7-7-7-7-7-7-----------------|
E-----------------5-5-5-5-5-5-5-5-----------------7-7-7-7-7-7-7-7-----------------5-5-5-5-5-5-5-5-|

G---------------------------------|
D---------------------------------|
A-7-7-7-7---------7-7-7-7-7-7-7-7-|
E---------7-7-7-7-----------------|

Verse 3 ("Well You're Kneeling Down At The Altar ...")
G-------------------------------------------------------------------------------------------------|
D-------------------------------------------------------------------------------------------------|
A-7-7-7-7-7-7-7-7-----------------7-7-7-7-7-7-7-7-----------------7-7-7-7-7-7-7-7-----------------|
E-----------------5-5-5-5-5-5-5-5-----------------7-7-7-7-7-7-7-7-----------------5-5-5-5-5-5-5-5-|

G---------------------------------|
D---------------------------------|
A-7-7-7-7---------7-7-7-7-7-7-7-7-|
E---------7-7-7-7-----------------|

Chorus ("Slam Bang, Right Down The Main Line...")
G-------------------------------------------------------------------------------------------------|
D-------------------------------------------------------------------------------------------------|
A-7-7-7-7-7-7-7-7-----------------7-7-7-7-7-7-7-7-----------------7-7-7-7-7-7-7-7-----------------|
E-----------------5-5-5-5-5-5-5-5-----------------7-7-7-7-7-7-7-7-----------------5-5-5-5-5-5-5-5-|

G---------------------------------|
D---------------------------------|
A-7-7-7-7---------7-7-7-7-7-7-7-7-|
E---------7-7-7-7-----------------|

Solo
G-------------------------------------------------------------------------------------------------|
D-------------------------------------------------------------------------------------------------|
A-7-7-7-7-7-7-7-7-----------------7-7-7-7-7-7-7-7-----------------7-7-7-7-7-7-7-7-----------------|
E-----------------5-5-5-5-5-5-5-5-----------------7-7-7-7-7-7-7-7-----------------5-5-5-5-5-5-5-5-|

G---------------------------------|
D---------------------------------|
A-7-7-7-7---------7-7-7-7-7-7-7-7-|
E---------7-7-7-7-----------------|

Verse 4 ("As You're Lying In The Gutter, OD'ed On Peanut Butter...")
G-------------------------------------------------------------------------------------------------|
D-------------------------------------------------------------------------------------------------|
A-------------------------------------------------------------------------------------------------|
E-------------------------------------------------------------------------------------------------|

G---------------------------------|
D---------------------------------|
A-7-7-7-7---------7-7-7-7-7-7-7-7-|
E---------7-7-7-7-----------------|

Chorus ("Slam Bang, Right Down The Main Line...")
G-------------------------------------------------------------------------------------------------|
D-------------------------------------------------------------------------------------------------|
A-7-7-7-7-7-7-7-7-----------------7-7-7-7-7-7-7-7-----------------7-7-7-7-7-7-7-7-----------------|
E-----------------5-5-5-5-5-5-5-5-----------------7-7-7-7-7-7-7-7-----------------5-5-5-5-5-5-5-5-|

G---------------------------------|
D---------------------------------|
A-7-7-7-7---------7-7-7-7-7-7-7-7-|
E---------7-7-7-7-----------------|

Chorus ("Slam Bang, Right Down The Main Line...")
G-------------------------------------------------------------------------------------------------|
D-------------------------------------------------------------------------------------------------|
A-7-7-7-7-7-7-7-7-----------------7-7-7-7-7-7-7-7-----------------7-7-7-7-7-7-7-7-----------------|
E-----------------5-5-5-5-5-5-5-5-----------------7-7-7-7-7-7-7-7-----------------5-5-5-5-5-5-5-5-|

G---------------------------------|---------------------------------|
D---------------------------------|---------------------------------|
A-7-7-7-7---------7---------------|-7-7-7-7-7-7-7-7-7-7-7-7-7-7-7-7-|
E---------7-7-7-7-----------------|---------------------------------|
Suggest correction
Give kudos to tab author, rate the tab!
1 2 3 4 5
comments
print report bad tab
guest
You may want to rate the tab now too:
select rating
Wanna post a correction for this tab? Suggest correction