Oops, an error
Loading. Please wait.

This Drinkin Will Kill Me Bass Tab

7 views 1 this week
no commentswrite comment
1 2 3 4 5
3 more votes to show rating
add to favorites
launch autoscroll
font size
0
reset
guitar tuner
Autoscroll
slow
fast
+/-
esc
set tempo
stop
Help us to improve Ultimate-Guitar.com Take our survey!
×
Author
Difficulty
Intro 
G-----------------------------------------------------------------|
D-----------------------------------------------------------------|
A---------3---------------3---------------3-------3-------5-------|
E-0---------------0---------------0-------------------------------|

Verse ("They Say This Drinkin' Will Kill Me...")
G-----------------------------------------------------------------|
D-----------------------------------------------------------------|
A---------3-3-3-3-------------------------5-5-5-5-----------------|
E-3-3-3-3---------3-3-3-3-3-3-3-3-3-3-3-3---------3-3-3-3-3-3-3-3-|

G-----------------------------------------------------------------|
D-----------------------------------------------------------------|
A---------3-3-3-3-------------------------5-5-5-5-----------------|
E-3-3-3-3---------3-3-3-3-3-3-3-3-3-3-3-3---------3-3-3-3-3-3-3-3-|

Chorus ("Death Can Come From This Broken Heart...")
G-------------------------------------------------------------------------------------------------|
D-------------------------------------------------------------------------------------------------|
A-----------------3-3-3-3-3-3-3-3-----------------3-3-3-3-3-3-3-3-----------------3-3-3-3-3-3-3-3-|
E-0-0-0-0-0-0-0-0-----------------0-0-0-0-0-0-0-0-----------------0-0-0-0-0-0-0-0-----------------|

("Hey Bar-Tender...")
G--------------------------------------------------|
D--------------------------------------------------|
A-3-3-3-3-3-3-3-3--5-5-5-5-5-5-5-5-5-5-5-5-5-5-5-5-|
E--------------------------------------------------|

Verse ("I Don't Care How The Preacher...")
G-----------------------------------------------------------------|
D-----------------------------------------------------------------|
A---------3-3-3-3-------------------------5-5-5-5-----------------|
E-3-3-3-3---------3-3-3-3-3-3-3-3-3-3-3-3---------3-3-3-3-3-3-3-3-|

G-----------------------------------------------------------------|
D-----------------------------------------------------------------|
A---------3-3-3-3-------------------------5-5-5-5-----------------|
E-3-3-3-3---------3-3-3-3-3-3-3-3-3-3-3-3---------3-3-3-3-3-3-3-3-|

Chorus ("Death Can Come From This Broken Heart...")
G-------------------------------------------------------------------------------------------------|
D-------------------------------------------------------------------------------------------------|
A-----------------3-3-3-3-3-3-3-3-----------------3-3-3-3-3-3-3-3-----------------3-3-3-3-3-3-3-3-|
E-0-0-0-0-0-0-0-0-----------------0-0-0-0-0-0-0-0-----------------0-0-0-0-0-0-0-0-----------------|

("Hey Bar-Tender...")
G--------------------------------------------------|
D--------------------------------------------------|
A-3-3-3-3-3-3-3-3--5-5-5-5-5-5-5-5-5-5-5-5-5-5-5-5-|
E--------------------------------------------------|

Solo 
G-----------------------------------------------------------------|
D-----------------------------------------------------------------|
A---------3-3-3-3-------------------------5-5-5-5-----------------|
E-3-3-3-3---------3-3-3-3-3-3-3-3-3-3-3-3---------3-3-3-3-3-3-3-3-|

G-----------------------------------------------------------------|
D-----------------------------------------------------------------|
A---------3-3-3-3-------------------------5-5-5-5-----------------|
E-3-3-3-3---------3-3-3-3-3-3-3-3-3-3-3-3---------3-3-3-3-3-3-3-3-|

G-------------------------------------------------------------------------------------------------|
D-------------------------------------------------------------------------------------------------|
A-----------------3-3-3-3-3-3-3-3-----------------3-3-3-3-3-3-3-3-----------------3-3-3-3-3-3-3-3-|
E-0-0-0-0-0-0-0-0-----------------0-0-0-0-0-0-0-0-----------------0-0-0-0-0-0-0-0-----------------|

G--------------------------------------------------|
D--------------------------------------------------|
A-3-3-3-3-3-3-3-3--5-5-5-5-5-5-5-5-5-5-5-5-5-5-5-5-|
E--------------------------------------------------|

Verse ("I Don't Care If My Friends Have All Left Me...")
G-----------------------------------------------------------------|
D-----------------------------------------------------------------|
A---------3-3-3-3-------------------------5-5-5-5-----------------|
E-3-3-3-3---------3-3-3-3-3-3-3-3-3-3-3-3---------3-3-3-3-3-3-3-3-|

G-----------------------------------------------------------------|
D-----------------------------------------------------------------|
A---------3-3-3-3-------------------------5-5-5-5-----------------|
E-3-3-3-3---------3-3-3-3-3-3-3-3-3-3-3-3---------3-3-3-3-3-3-3-3-|

Chorus ("Death Can Come From This Broken Heart...")
G-------------------------------------------------------------------------------------------------|
D-------------------------------------------------------------------------------------------------|
A-----------------3-3-3-3-3-3-3-3-----------------3-3-3-3-3-3-3-3-----------------3-3-3-3-3-3-3-3-|
E-0-0-0-0-0-0-0-0-----------------0-0-0-0-0-0-0-0-----------------0-0-0-0-0-0-0-0-----------------|

("Hey Bar-Tender...")
G--------------------------------------------------|
D--------------------------------------------------|
A-3-3-3-3-3-3-3-3--5-5-5-5-5-5-5-5-5-5-5-5-5-5-5-5-|
E--------------------------------------------------|

Verse ("They Say This Drinkin' Will Kill Me...")
G-----------------------------------------------------------------|
D-----------------------------------------------------------------|
A---------3-3-3-3-------------------------5-5-5-5-----------------|
E-3-3-3-3---------3-3-3-3-3-3-3-3-3-3-3-3---------3-3-3-3-3-3-3-3-|

G-----------------------------------------------------------------|-----------------------------------------|
D-----------------------------------------------------------------|-----------------------------------------|
A---------3-3-3-3-------------------------5-5-5-5-----------------|---------5-5-5-5-------------------------|
E-3-3-3-3---------3-3-3-3-3-3-3-3-3-3-3-3---------3-3-3-3-3-3-3-3-|-3-3-3-3---------3-3-3-3-3-3-3-3-3-3-3-3-|
Suggest correction
Give kudos to tab author, rate the tab!
1 2 3 4 5
comments
print report bad tab
guest
You may want to rate the tab now too:
select rating
Wanna post a correction for this tab? Suggest correction