Oops, an error
Loading. Please wait.

Fulfilled Bass

28 views 1 this week
no commentswrite comment
1 2 3 4 5
3 more votes to show rating
add to favorites
launch autoscroll
font size
0
reset
guitar tuner
Autoscroll
slow
fast
+/-
esc
set tempo
stop
Artist: Ninety Pound Wuss
Song: Fulfilled
Tabbed by: The guy that writes good tabs, Jonathan Martinez
(jonthebassplayer@integrity.com)

Alright, this song is definitely my favorite song on the album. I must
admit (much to the chagrin of you punk rockers) that I am no longer into
punk. But here's the tab from when I was. I like emo, or "nerd punk" as
you guys call it. I can do everything short of
guarantee you that this is accurate. If you disagree, email me.

Standard Tuning (E-A-D-G)

V=downstroke strum (yes, you do strum)

Intro

                   V V V                              V V V
G---------------------------------|---------------------------------------|
D------------------4-4-4----------|--3-3-3------------4-4-4----repeat X7--|
A---------4-4-4----5-5-5----------|----------4-4-4-0--5-5-5---------------|
E---------------------------------|---------------------------------------|

Verses

          V V V                                        V V V
G---------------------------|---------------------------------------------|
D---------4-4-4----repeat X9|-----3-3-3----------------4-4-4---repeat X3--|
A---------5-5-5-------------|-------------4-4-4-0------5-5-5--------------|
E---------------------------|---------------------------------------------|

Chorus

G------------------------|--------------------------------|---------------|
D---3-2-------repeat X3--|-----------------3-2--repeat X3-|---------------|
A----------2-------------|---0-3--------2-----------------|--0-3-0-3-2----|
E------------------------|--------------------------------|---------------|

Bridge

G------------------------------|------------------------------------------|
D------------------------------|-----------------------repeat X5----------|
A---------2-2-------2----------|-----2------------------------------------|
E----------------1-------2-----|----------2-------------------------------|

Outro

G-----------------------------|---------------------|---------------------|
D------------------repeat X4--|----------repeat X8--|---------------------|
A-------2-------4-------------|---4-----------------|------2----4-4-4-----|
E---2-------2-----------------|--------2------------|---2-----2--------2--|

That's it! I only ask 2 things: 1. Have fun with this, and 2. don't
jack my work. Feel free to post this on your tab website if you have one,
but only after you email me and ask permission and only under MY name.
Suggest correction
Give kudos to tab author, rate the tab!
1 2 3 4 5
comments
print report bad tab
guest
Wanna post a correction for this tab? Suggest correction