Oops, an error
Loading. Please wait.

Cool Patrol Tab

394 views 57 this week
no commentswrite comment
1 2 3 4 5
x 4
add to favorites
launch autoscroll
font size
0
reset
how to read this tab
guitar tuner
Autoscroll
slow
fast
+/-
esc
set tempo
stop
Help us to improve Ultimate-Guitar.com Take our survey!
×
Author
Difficulty
novice
About this tab version
This should be an accurate guide to playing along to Dan's melody. Was this info helpful? Yes No
This is my first tab so here goes. I basically enjoy "singing" along to Dan's Melody and the main riff. 
Because of this
in the chorus you may have to add 1 or 2 quick notes (IE repeat certain notes, not add in extra tones in 
between).

Standard Tuning

\  slide

[Intro]

e|---------------------------------------------------------------------------|
B|---------------------------------------------------------------------------|  x2
G|---------------------------------------------------------------------------|
D|---------------------------------------------------------------------------|
A|---------------3-4-6-------4-----------------------------------------------|
E|-------6\0-6-6-------4-4-4---4---------------------------------------------|

The First verse basically follows on from intro without stopping
[Verse]

e|------------------------------------|     e|--------------|       
B|------------------------------------| x3  B|--------------|
G|------------------------------------|     G|--------------|
D|------------------------------------|     D|--3--3----3-3-|
A|---------------3-4-6-------4--------|     A|--3--3----3-3-|
E|-------6\0-6-6-------4-4-4---4------|     E|--1--1----1-1-|


e|------------------------------------|     e|--------------|       
B|------------------------------------| x3  B|--------------|
G|------------------------------------|     G|--------------|
D|------------------------------------|     D|--3--3----3-3-|
A|---------------3-4-6-------4--------|     A|--3--3----3-3-|
E|-------6\0-6-6-------4-4-4---4------|     E|--1--1----1-1-|

The first 6 notes are always the same but play along with song to see if you want some later ones hit maybe 4 
quick times instead of 2 times etc

[Chorus]

e|---------------------------------------------------------------------------|
B|---------------------------------------------------------------------------|
G|----6-6-6--6-5-3-1-------1-3-3-----------6-6-6--6-5-3-1-3-3\6--5-5--3-3----|
D|--------------------1-1----------------------------------------------------|
A|---------------------------------------------------------------------------|
E|---------------------------------------------------------------------------|

e|---------------------------------------------------------------------------|
B|---------------------------------------------------------------------------|
G|----6-6-6--6-5-3-1-------1-3-3-----------6-6-6--6-5-3-1---3\5--3-1---------|
D|--------------------1-1----------------------------------------------------|
A|---------------------------------------------------------------------------|
E|---------------------------------------------------------------------------|


e|---------------------------------------------------------------------------|
B|---------------------------------------------------------------------------|
G|----6-6-6--6-5-3-1-------1-3-3-----------6-6-6--6-5-3-1-3-3\6--5-5--3-3----|
D|--------------------1-1----------------------------------------------------|
A|---------------------------------------------------------------------------|
E|---------------------------------------------------------------------------|

e|---------------------------------------------------------------------------|
B|---------------------------------------------------------------------------|
G|----6-6-6--6-5-3-1-------1-3-3-----------6-6-6--6-5-3-1---3\5--3-1---------|
D|--------------------1-1----------------------------------------------------|
A|---------------------------------------------------------------------------|
E|---------------------------------------------------------------------------|

e|------------------|
B|------------------|
G|------------------|
D|------------------|
A|---8\3-3-4-6-6----|
E|---6\1-1-2-4-4----|

Pre Verse

e|---------------------------------------------------------------------------|
B|---------------------------------------------------------------------------|  x2
G|---------------------------------------------------------------------------|
D|---------------------------------------------------------------------------|
A|---------------3-4-6-------4-----------------------------------------------|
E|-------6\0-6-6-------4-4-4---4---------------------------------------------|


2nd Verse

e|------------------------------------|     e|--------------|       
B|------------------------------------| x3  B|--------------|
G|------------------------------------|     G|--------------|
D|------------------------------------|     D|--3--3----3-3-|
A|---------------3-4-6-------4--------|     A|--3--3----3-3-|
E|-------6\0-6-6-------4-4-4---4------|     E|--1--1----1-1-|

2nd Chorus

e|---------------------------------------------------------------------------|
B|---------------------------------------------------------------------------|
G|----6-6-6--6-5-3-1-------1-3-3-----------6-6-6--6-5-3-1-3-3\6--5-5--3-3----|
D|--------------------1-1----------------------------------------------------|
A|---------------------------------------------------------------------------|
E|---------------------------------------------------------------------------|

e|---------------------------------------------------------------------------|
B|---------------------------------------------------------------------------|
G|----6-6-6--6-5-3-1-------1-3-3-----------6-6-6--6-5-3-1---3\5--3-1---------|
D|--------------------1-1----------------------------------------------------|
A|---------------------------------------------------------------------------|
E|---------------------------------------------------------------------------|


e|---------------------------------------------------------------------------|
B|---------------------------------------------------------------------------|
G|----6-6-6--6-5-3-1-------1-3-3-----------6-6-6--6-5-3-1-3-3\6--5-5--3-3----|
D|--------------------1-1----------------------------------------------------|
A|---------------------------------------------------------------------------|
E|---------------------------------------------------------------------------|

e|---------------------------------------------------------------------------|
B|---------------------------------------------------------------------------|
G|----6-6-6--6-5-3-1-------1-3-3-----------6-6-6--6-5-3-1---3\5--3-1---------|
D|--------------------1-1----------------------------------------------------|
A|---------------------------------------------------------------------------|
E|---------------------------------------------------------------------------|

During the Cool break I start with the main notes (first 8 slow notes) then move into Dan's melody

e|---------------------------------------------------------------------------|
B|---------------------------------------------------------------------------|
G|---------------------------------------------------------------------------|
D|---------------------------------------------------------------------------|
A|----6-1-4---6-1-4-------4-6-6-4-3------6-8-6----4-6-6-4-3------------------|
E|--4-------4-----------4-----------6-4---------4-----------6-4--------------|

[3rd Chorus]


[Outro]
[Chorus]

e|---------------------------------------------------------------------------|
B|---------------------------------------------------------------------------|
G|----6-6-6--6-5-3-1-------1-3-3-----------6-6-6--6-5-3-1-3-3\6--5-5--3-3----|
D|--------------------1-1----------------------------------------------------|
A|---------------------------------------------------------------------------|
E|---------------------------------------------------------------------------|

e|---------------------------------------------------------------------------|
B|---------------------------------------------------------------------------|
G|----6-6-6--6-5-3-1-------1-3-3-----------6-6-6--6-5-3-1---3\5--3-1---------|
D|--------------------1-1----------------------------------------------------|
A|---------------------------------------------------------------------------|
E|---------------------------------------------------------------------------|

e|---------------------------------------------------------------------------|
B|---------------------------------------------------------------------------|
G|----6-6-6--6-5-3-1-------1-3-3-----------6-6-6--6-5-3-1-3-3\6--5-5--3-3----|
D|--------------------1-1----------------------------------------------------|
A|---------------------------------------------------------------------------|
E|---------------------------------------------------------------------------|

e|---------------------------------------------------------------------------|
B|---------------------------------------------------------------------------|
G|----6-6-6--6-5-3-1-------1-3-3-----------6-6-6--6-5-3-1---3\5--3-1---------|
D|--------------------1-1----------------------------------------------------|
A|---------------------------------------------------------------------------|
E|---------------------------------------------------------------------------|

e|----------------------|
B|----------------------|
G|----------------------|
D|----------------------|
A|---8\3-3-4-6-6--------|
E|---6\1-1-2-4-4--6b\0--|


Suggest correction
comments
print report bad tab
guest
You may want to rate the tab now too:
select rating
Wanna post a correction for this tab? Suggest correction