Oops, an error
Loading. Please wait.

Everybody Wants To Rule The World Tab

301 views 18 this week
no commentswrite comment
1 2 3 4 5
3 more votes to show rating
add to favorites
launch autoscroll
font size
0
reset
how to read this tab
guitar tuner
Autoscroll
slow
fast
+/-
esc
set tempo
stop
Help us to improve Ultimate-Guitar.com Take our survey!
×
Author
Difficulty
intermediate
About this tab version
Full transcription of the studio cover's guitar part, with chords based on the keyboard and bass parts. Was this info helpful? Yes No
Artist: Ninja Sex Party with TWRP
Song: Everybody Wants to Rule the World (by Tears for Fears)


6/8 Time Signature Throughout

Chords arranged from keyboards and bass.


[Intro] 
Only palm mute B string

           PM      PM        PM      PM      PM        PM      PM      PM        PM      PM      PM
e|-----5-------7-------5---|-----5-------7-------5---|-----5-------7-------5---|-----5-------7-------5---|
B|/7-------7-------7-------|-7-------7-------7-------|-7-------7-------7-------|-7-------7-------7-------|
G|-------------------------|-------------------------|-------------------------|-------------------------|
D|-------------------------|-------------------------|-------------------------|-------------------------|
A|-------------------------|-------------------------|-------------------------|-------------------------|
E|-------------------------|-------------------------|-------------------------|-------------------------|



   PM      PM      PM        PM      PM      PM        PM      PM      PM        PM      PM      PM
e|-----5-------7-------5---|-----5-------7-------5---|-----5-------7-------5---|-----5-------7-------5---|
B|-7-------7-------7-------|-7-------7-------7-------|-7-------7-------7-------|-7-------7-------7-------|
G|-------------------------|-------------------------|-------------------------|-------------------------|
D|-------------------------|-------------------------|-------------------------|-------------------------|
A|-------------------------|-------------------------|-------------------------|-------------------------|
E|-------------------------|-------------------------|-------------------------|-------------------------|





[Groove]

    A/D                 G/D
                                     PM--------|               PM--------|               PM--------|
e|-------------------------|-------------------------|-------------------------|-------------------------|
B|-------------------------|-------------------------|-------------------------|-------------------------|
G|-------------------------|-------------------------|-------------------------|-------------------------|
D|-------------------------|-------------------------|-------------------------|-------------------------|
A|-------------------------|---------5---5---5---5---|---------5---5---5---5---|---------5---5---5---5---|
E|-------------------------|-------------------------|-------------------------|-------------------------|





    A/D                 G/D

e|-------------------------|-------------7---7-------|-7-----------------------|-------------------------|
B|-------------------------|-------------7---7-------|-7-----------------------|-------------------------|
G|-------------------------|---------9-----------9---|---------9-------7--h9---|-7h9---------7\----------|
D|-------------------------|-------------------------|-------------------------|-------------------------|
A|-------------------------|-------------------------|-------------------------|-------------------------|
E|-------------------------|-------------------------|-------------------------|-------------------------|




    A/D                 G/D
                                     PM--------|               PM--------|               PM--------|
e|-------------------------|-------------------------|-------------------------|-------------------------|
B|-------------------------|-------------------------|-------------------------|-------------------------|
G|-------------------------|-------------------------|-------------------------|-------------------------|
D|-------------------------|-------------------------|-------------------------|-------------------------|
A|-------------------------|---------5---5---5---5---|---------5---5---5---5---|---------5---5---5---5---|
E|-------------------------|-------------------------|-------------------------|-------------------------|




    A/D                 G/D

e|-------------------------|-------------7---7-------|-7-----------------------|-------------7\----------|
B|-------------------------|-------------7---7-------|-7-----------------------|-------------7\----------|
G|-------------------------|---------9-----------9---|---------9-------7--h9---|-7h9-----7---9\----------|
D|-------------------------|-------------------------|-------------------------|-------------------------|
A|-------------------------|-------------------------|-------------------------|-------------------------|
E|-------------------------|-------------------------|-------------------------|-------------------------|




[Verse]

    A/D                 G/D

e|-------------------------|-------------------------|-------------------------|-------------------------|
B|-------------------------|-------------------------|-------------------------|-------------------------|
G|-------------------------|-------------------------|-------------------------|-------------------------|
D|-------------------------|-------------------------|-------------------------|-------------------------|x4
A|-------------------------|-------------------------|-------------------------|-------------------------|
E|-------------------------|-------------------------|-------------------------|-------------------------|



[Chorus]

    Em                                                  F#m

e|-0-----------------------|-------------------------|-2-----------------------|-------------------------|
B|-0-----------------------|-------------------------|-2-----------------------|-------------------------|
G|-0-----------------------|-------------------------|-2-----------------------|-------------------------|
D|-2-----------------------|-------------------------|-4-----------------------|-------------------------|
A|-2-----------------------|-------------------------|-4-----------------------|-------------------------|
E|-0-----------------------|-------------------------|-2-----------------------|-------------------------|



    G                                                   F#m

e|-3-----------------------|-------------------------|-2-----------------------|-------------------------|
B|-3-----------------------|-------------------------|-2-----------------------|-------------------------|
G|-0-----------------------|-------------------------|-2-----------------------|-------------------------|
D|-0-----------------------|-------------------------|-4-----------------------|-------------------------|
A|-2-----------------------|-------------------------|-4-----------------------|-------------------------|
E|-3-----------------------|-------------------------|-2-----------------------|-------------------------|



    Em                        F#m                       G                         A

e|-0-----------------------|-2-----------------------|-3-----------------------|-0-----------------------|
B|-0-----------------------|-2-----------------------|-3-----------------------|-2-----------------------|
G|-0-----------------------|-2-----------------------|-0-----------------------|-2-----------------------|
D|-2-----------------------|-4-----------------------|-0-----------------------|-2-----------------------|
A|-2-----------------------|-4-----------------------|-2-----------------------|-0-----------------------|
E|-0-----------------------|-2-----------------------|-3-----------------------|-------------------------|



[Groove]

    A/D                 G/D
                                     PM--------|               PM--------|               PM--------|
e|-------------------------|-------------------------|-------------------------|-------------------------|
B|-------------------------|-------------------------|-------------------------|-------------------------|
G|-------------------------|-------------------------|-------------------------|-------------------------|
D|-------------------------|-------------------------|-------------------------|-------------------------|x2
A|-------------------------|---------5---5---5---5---|---------5---5---5---5---|---------5---5---5---5---|
E|-------------------------|-------------------------|-------------------------|-------------------------|



[Verse]

    A/D                 G/D

e|-------------------------|-------------------------|-------------------------|-------------------------|
B|-------------------------|-------------------------|-------------------------|-------------------------|
G|-------------------------|-------------------------|-------------------------|-------------------------|
D|-------------------------|-------------------------|-------------------------|-------------------------|x4
A|-------------------------|-------------------------|-------------------------|-------------------------|
E|-------------------------|-------------------------|-------------------------|-------------------------|



[Chorus]

    Em                                                  F#m

e|-0-----------------------|-------------------------|-2-----------------------|-------------------------|
B|-0-----------------------|-------------------------|-2-----------------------|-------------------------|
G|-0-----------------------|-------------------------|-2-----------------------|-------------------------|
D|-2-----------------------|-------------------------|-4-----------------------|-------------------------|
A|-2-----------------------|-------------------------|-4-----------------------|-------------------------|
E|-0-----------------------|-------------------------|-2-----------------------|-------------------------|



    G                                                   F#m

e|-3-----------------------|-------------------------|-2-----------------------|-------------------------|
B|-3-----------------------|-------------------------|-2-----------------------|-------------------------|
G|-0-----------------------|-------------------------|-2-----------------------|-------------------------|
D|-0-----------------------|-------------------------|-4-----------------------|-------------------------|
A|-2-----------------------|-------------------------|-4-----------------------|-------------------------|
E|-3-----------------------|-------------------------|-2-----------------------|-------------------------|



    Em                        F#m                       G                         A

e|-0-----------------------|-2-----------------------|-3-----------------------|-0-----------------------|
B|-0-----------------------|-2-----------------------|-3-----------------------|-2-----------------------|
G|-0-----------------------|-2-----------------------|-0-----------------------|-2-----------------------|
D|-2-----------------------|-4-----------------------|-0-----------------------|-2-----------------------|
A|-2-----------------------|-4-----------------------|-2-----------------------|-0-----------------------|
E|-0-----------------------|-2-----------------------|-3-----------------------|-------------------------|



[Bridge] + Distortion

    G                                                       D                         A

e|-------------------------|-------------------------|-------------------------|-------------------------|
B|-------------------------|-------------------------|-------------------------|-------------------------|
G|-------------------------|-------------------------|-----7-------7-----------|-------------------------|
D|-5-----------------------|-------------------------|-----7-------7-----------|-----7-------7-----------|x3
A|-5-----------------------|-------------------------|-----5-------5-----------|-----7-------7-----------|
E|-3-----------------------|-------------------------|-------------------------|-----5-------5-----------|



[Chorus]

    Em                                                  F#m

e|-------------------------|-------------------------|-------------------------|-------------------------|
B|-------------------------|-------------------------|-------------------------|-------------------------|
G|-------------------------|-------------------------|-------------------------|-------------------------|
D|-------------------------|-------------------------|-------------------------|-------------------------|
A|-------------------------|-------------------------|-------------------------|-------------------------|
E|-0-----------------------|-------------------------|-2-----------------------|-------------------------|



    G                                                   F#m

e|-------------------------|-------------------------|-------------------------|-------------------------|
B|-------------------------|-------------------------|-------------------------|-------------------------|
G|-------------------------|-------------------------|-------------------------|-------------------------|
D|-------------------------|-------------------------|-------------------------|-------------------------|
A|-------------------------|-------------------------|-------------------------|-------------------------|
E|-3-----------------------|-------------------------|-2-----------------------|-------------------------|



    Em                        F#m                       G                         A

e|-------------------------|-------------------------|-------------------------|-------------------------|
B|-------------------------|-------------------------|-------------------------|-------------------------|
G|-------------------------|-------------------------|-------------------------|-------------------------|
D|-------------------------|-------------------------|-------------------------|-------------------------|
A|-------------------------|-------------------------|-------------------------|-0-----------------------|
E|-0-----------------------|-2-----------------------|-3-----------------------|-------------------------|


[Bridge] - Distortion

    G                                             D                         A                         G

e|-----5-------7-------5---|-----5-------7-------5---|-----5-------7-------5---|-----5-------7-------5---|
B|-7-------7-------7-------|-7-------7-------7-------|-7-------7-------7-------|-7-------7-------7-------|
G|-------------------------|-------------------------|-------------------------|-------------------------|
D|-------------------------|-------------------------|-------------------------|-------------------------|x4
A|-------------------------|-------------------------|-------------------------|-------------------------|
E|-------------------------|-------------------------|-------------------------|-------------------------|


    Bm                                                  D/C                   

e|-----5-------7-------5---|-----5-------7-------5---|-----5-------7-------5---|-----5-------7-------5---|
B|-7-------7-------7-------|-7-------7-------7-------|-7-------7-------7-------|-7-------7-------7-------|
G|-------------------------|-------------------------|-------------------------|-------------------------|
D|-------------------------|-------------------------|-------------------------|-------------------------|x2
A|-------------------------|-------------------------|-------------------------|-------------------------|
E|-------------------------|-------------------------|-------------------------|-------------------------|




    G                                                   A                   

e|-----5-------7-------5---|-----5-------7-------5---|-----5-------7-------5---|-----5-------7-------5---|
B|-7-------7-------7-------|-7-------7-------7-------|-7-------7-------7-------|-7-------7-------7-------|
G|-------------------------|-------------------------|-------------------------|-------------------------|
D|-------------------------|-------------------------|-------------------------|-------------------------|
A|-------------------------|-------------------------|-------------------------|-------------------------|
E|-------------------------|-------------------------|-------------------------|-------------------------|
    


[Solo] + Distortion and Flanger

    A/D                 G/D

e|-------------------------|-------------7---7-------|-------------7---7-------|-7-----------------------|
B|-------------------------|-------------7---7-------|-------------7---7-------|-7-----------------------|
G|-------------------------|--------/9-----------9---|---------9-----------9---|---------9-------7\------|
D|-------------------------|-------------------------|-------------------------|-------------------------|
A|-------------------------|-------------------------|-------------------------|-------------------------|
E|-------------------------|-------------------------|-------------------------|-------------------------|



    A/D                 G/D
                                                                    
e|-------------------------|-------------x---10/-12\-|-10----------------------|-------------------------|
B|-------------------------|-------------x---10/-12\-|-10----------7---b--br---|-b--br-------------------|
G|-------------------------|-------------------------|-------------------------|---------7\--------------|
D|-------------------------|-------------------------|-------------------------|-------------------------|
A|-------------------------|-------------------------|-------------------------|-------------------------|
E|-------------------------|-------------------------|-------------------------|-------------------------|



    A/D                 G/D

e|---------5---7---x---x---|-------------5---7-------|---------5---7-----------|---------5---7-----------|
B|---------5---7---x---x---|-------------5---7-------|---------5---7-----------|---------5---7-----------|
G|-------------------------|-6---7---------------6---|-7-------------------6---|-7---------------6---7---|
D|-------------------------|-------------------------|-------------------------|-------------------------|
A|-------------------------|-------------------------|-------------------------|-------------------------|
E|-------------------------|-------------------------|-------------------------|-------------------------|



    A/D                 G/D
            PM------|
e|-------------------------|-------------------------|-10/-12\-10------5-/-7---|-5-----------------------|
B|-------------------------|-------------------------|-10/-12\-10------5-/-7---|-5-------5---7-----------|
G|-9-----------------------|-------------------------|-------------------------|-------------7-----------|
D|-9-------9-------7-------|-7-/-9~------------------|-------------------------|-------------------------|
A|-------------------------|-------------------------|-------------------------|-------------------------|
E|-------------------------|-------------------------|-------------------------|-------------------------|



[Chorus] - Distortion and Flanger

    Em                                                  F#m

e|-0-----------------------|-------------------------|-2-----------------------|-------------------------|
B|-0-----------------------|-------------------------|-2-----------------------|-------------------------|
G|-0-----------------------|-------------------------|-2-----------------------|-------------------------|
D|-2-----------------------|-------------------------|-4-----------------------|-------------------------|
A|-2-----------------------|-------------------------|-4-----------------------|-------------------------|
E|-0-----------------------|-------------------------|-2-----------------------|-------------------------|



    G                                                   F#m

e|-3-----------------------|-------------------------|-2-----------------------|-------------------------|
B|-3-----------------------|-------------------------|-2-----------------------|-------------------------|
G|-0-----------------------|-------------------------|-2-----------------------|-------------------------|
D|-0-----------------------|-------------------------|-4-----------------------|-------------------------|
A|-2-----------------------|-------------------------|-4-----------------------|-------------------------|
E|-3-----------------------|-------------------------|-2-----------------------|-------------------------|



    Em                        F#m                       G                         A

e|-0-----------------------|-2-----------------------|-3-----------------------|-0-----------------------|
B|-0-----------------------|-2-----------------------|-3-----------------------|-2-----------------------|
G|-0-----------------------|-2-----------------------|-0-----------------------|-2-----------------------|
D|-2-----------------------|-4-----------------------|-0-----------------------|-2-----------------------|
A|-2-----------------------|-4-----------------------|-2-----------------------|-0-----------------------|
E|-0-----------------------|-2-----------------------|-3-----------------------|-------------------------|




[Chorus]

    Em                                                  F#m

e|-0-----------------------|-------------------------|-2-----------------------|-------------------------|
B|-0-----------------------|-------------------------|-2-----------------------|-------------------------|
G|-0-----------------------|-------------------------|-2-----------------------|-------------------------|
D|-2-----------------------|-------------------------|-4-----------------------|-------------------------|
A|-2-----------------------|-------------------------|-4-----------------------|-------------------------|
E|-0-----------------------|-------------------------|-2-----------------------|-------------------------|



    G                                                   F#m

e|-3-----------------------|-------------------------|-2-----------------------|-------------------------|
B|-3-----------------------|-------------------------|-2-----------------------|-------------------------|
G|-0-----------------------|-------------------------|-2-----------------------|-------------------------|
D|-0-----------------------|-------------------------|-4-----------------------|-------------------------|
A|-2-----------------------|-------------------------|-4-----------------------|-------------------------|
E|-3-----------------------|-------------------------|-2-----------------------|-------------------------|



    Em                        F#m                       G                         A

e|-0-----------------------|-2-----------------------|-3-----------------------|-0-----------------------|
B|-0-----------------------|-2-----------------------|-3-----------------------|-2-----------------------|
G|-0-----------------------|-2-----------------------|-0-----------------------|-2-----------------------|
D|-2-----------------------|-4-----------------------|-0-----------------------|-2-----------------------|
A|-2-----------------------|-4-----------------------|-2-----------------------|-0-----------------------|
E|-0-----------------------|-2-----------------------|-3-----------------------|-------------------------|



[Groove]

    D

e|-----5-------7-------5---|-----5-------7-------5---|-----5-------7-------5---|-----5-------7-------5---|
B|-7-------7-------7-------|-7-------7-------7-------|-7-------7-------7-------|-7-------7-------7-------|
G|-------------------------|-------------------------|-------------------------|-------------------------|
D|-------------------------|-------------------------|-------------------------|-------------------------|x2
A|-------------------------|-------------------------|-------------------------|-------------------------|
E|-------------------------|-------------------------|-------------------------|-------------------------|



[Chorus]

    Em                                                  F#m

e|-0-----------------------|-------------------------|-2-----------------------|-------------------------|
B|-0-----------------------|-------------------------|-2-----------------------|-------------------------|
G|-0-----------------------|-------------------------|-2-----------------------|-------------------------|
D|-2-----------------------|-------------------------|-4-----------------------|-------------------------|
A|-2-----------------------|-------------------------|-4-----------------------|-------------------------|
E|-0-----------------------|-------------------------|-2-----------------------|-------------------------|



    G                                                   F#m

e|-3-----------------------|-------------------------|-2-----------------------|-------------------------|
B|-3-----------------------|-------------------------|-2-----------------------|-------------------------|
G|-0-----------------------|-------------------------|-2-----------------------|-------------------------|
D|-0-----------------------|-------------------------|-4-----------------------|-------------------------|
A|-2-----------------------|-------------------------|-4-----------------------|-------------------------|
E|-3-----------------------|-------------------------|-2-----------------------|-------------------------|



    Em                        F#m                       G                         A

e|-0-----------------------|-2-----------------------|-3-----------------------|-0-----------------------|
B|-0-----------------------|-2-----------------------|-3-----------------------|-2-----------------------|
G|-0-----------------------|-2-----------------------|-0-----------------------|-2-----------------------|
D|-2-----------------------|-4-----------------------|-0-----------------------|-2-----------------------|
A|-2-----------------------|-4-----------------------|-2-----------------------|-0-----------------------|
E|-0-----------------------|-2-----------------------|-3-----------------------|-------------------------|


[Outro] - Starts Fade Out on 4th Repeat

    A/D                 G/D

e|-------------------------|-------------------------|-------------------------|-------------------------|
B|-------------------------|-------------------------|-------------------------|-------------------------|
G|-------------------------|-------------------------|-------------------------|-------------------------|
D|-------------------------|-------------------------|-------------------------|-------------------------|x8
A|-------------------------|-------------------------|-------------------------|-------------------------|
E|-------------------------|-------------------------|-------------------------|-------------------------|


************************************

| x   Dead note
| h   Hammer-on
| b   Bend
| br  Bend release
| /   Slide up
| \   Slide down
| ~   Vibrato
| PM  Palm mute

************************************
Suggest correction
Give kudos to tab author, rate the tab!
1 2 3 4 5
comments
print report bad tab
guest
You may want to rate the tab now too:
select rating
Wanna post a correction for this tab? Suggest correction