Oops, an error
Loading. Please wait.

Hated Tab

155 views 1 this week
no commentswrite comment
1 2 3 4 5
please rate
add to favorites
launch autoscroll
font size
0
reset
how to read this tab
guitar tuner
Tab Pro tools
  • play this tab
  • loop segment
  • change instrument
  • show fretboard
  • metronome
Autoscroll
slow
fast
+/-
esc
set tempo
stop
Contributor
Difficulty
Tuning
intermediate
C G C F A D
Band: Ninjaspy
Song: haTed
Album: Nature

Intro (Clean) x2
D|-10-----10---10---9h10-----10---10---9-|
A|-10-x-x-10-x-10-x-9h10-x-x-10-x-10-x-9-|
F|---------------------------------------|
C|---------------------------------------|
G|---------------------------------------|
C|---------------------------------------|

Main Riff x2
D|-----------10--10----------10--10-|-----------10--10--11--11--8---8-|
A|-----------10--10----------10--10-|-----------10--10--11--11--8---8-|
F|----------------------------------|---------------------------------|
C|-0-0---0-----------0---0----------|---0---0-------------------------|
G|-0-0---0-----------0---0----------|---0---0-------------------------|
C|-0-0---0-----------0---0----------|---0---0-------------------------|

Verse Riff 1 x1
D|---------------------------------|---------------------------------|
A|---------------------------------|---------------------------------|
F|-----------7---7-----------7---7-|-----------7---7---------5---7---|
C|-5---------5---5-5---------5---5-|-5---------5---5-5---5---5---7---|
G|-5---------------5---------------|-5---------------5---5---3---5---|
C|-5-----5-5---5---5-----5-5---5---|-5-----5-5---5---5---5-----------|

Main Riff x1
Verse Riff 1 x1
Main Riff x1

Verse Riff 2 x1
D|---------------------------------|---------------------------------|
A|---------------------------------|---------------------------------|
F|---------------------------------|-------------------------5---7---|
C|-5-5---5-5\------5-5---5-5\------|-5-5---5-5\------5---5---5---7---|
G|-5-5---5-5\------5-5---5-5\------|-5-5---5-5\------5---5---3---5---|
C|-5-5---5-5\------5-5---5-5\------|-5-5---5-5\------5---5-----------|

Pre-Chorus 1 x1
D|---------------------------------|---------------------------------|
A|---------------------------------|---------------------------------|
F|---------------------------------|-----------------8---8---5---5---|
C|---------------------------------|-----------------8---8---5---5---|
G|-0-0---0---0---0-0-0---0---0---0-|-0-0---0---0-----6---6---3---3---|
C|-0-0---0---0---0-0-0---0---0---0-|-0-0---0---0---0-----------------|

Pre-Chorus 2 x1
D|-----------10--10----------10--10-|-----------10--10----------------|
A|-----------10--10----------10--10-|-----------10--10----------------|
F|----------------------------------|---------------------------------|
C|-0-0---0-----------0---0----------|---0---0----------0--------------|
G|-0-0---0-----------0---0----------|---0---0----------0--------------|
C|-0-0---0-----------0---0----------|---0---0----------0--------------|

Chorus x4
D|----------------------------------|
A|----------------------------------|
F|----------------------------------|
C|-----5-------5--------------------|
G|-5-5-5---5-5-5---3--2--0--3--2--0-|
C|-5-5-5---5-5-5---3--2--0--3--2--0-|

Intro (Clean) x1
Main Riff x2
Verse Riff 1 x1
Main Riff x1
Verse Riff 1 x1
Main Riff x1

Verse Riff 2 x1
D|---------------------------------|---------------------------------|
A|---------------------------------|---------------------------------|
F|---------------------------------|-------------------------5---7---|
C|-5-5---5-5\------5-5---5-5\------|-5-5---5-5\--------------5---7---|
G|-5-5---5-5\------5-5---5-5\------|-5-5---5-5\------5-5-5-5-3---5---|
C|-5-5---5-5\------5-5---5-5\------|-5-5---5-5\------5-5-5-5---------|

Pre-Chorus 1 x2
D|---------------------------------|---------------------------------|
A|---------------------------------|---------------------------------|
F|---------------------------------|-----------------8---8---5---5---|
C|---------------------------------|-----------------8---8---5---5---|
G|-0-0---0---0-----0-0---0---0---0-|-0-0---0---0-----6---6---3---3---|
C|-0-0---0---0---000-0---0---0---0-|-0-0---0---0---0-----------------|

Pre-Chorus 2 x1
Chorus x4

Chorus Build-up
D|------------------------------------------------------|
A|------------------------------------------------------|
F|------------------------------------------------------|
C|------------------------------------------------------|
G|-3--2--0--3--2--0--3--2--0--3--2--0--3--2--0--3--2--0-|
C|-3--2--0--3--2--0--3--2--0--3--2--0--3--2--0--3--2--0-|

D|---------------------------------|
A|---------------------------------|
F|---------------------------------|
C|-1-------------------------------|
G|-1-------------------------------|
C|-1-------------------------------|

Bridge Riff 1
D|----------------------------------|----------------------------------|
A|----------------------------------|----------------------------------|
F|-0-0-8-0-7-0-10-0-8-0-5-0-7-0-3---|-0-0-8-0-7-0-10-0-8-0-5-0-7-0-3---|
C|----------------------------------|----------------------------------|
G|----------------------------------|----------------------------------|
C|----------------------------------|----------------------------------|

D|----------------------------------|----------------------------------|
A|----------------------------------|----------------------------------|
F|----------------------------------|----------------------------------|
C|-0-0-8-0-7-0-10-0-8-0-5-0-7-0-3---|-0-0-8^0-7^0-10^0-8^0-5^0-7^0-3^--|
G|----------------------------------|----------------------------------|
C|----------------------------------|----------------------------------|

Bridge Riff 2 x4
D|----------------------------------|
A|----------------------------------|
F|-----8---7---10---8---5---7---3---|
C|-0-0-8-0-7-0-10-0-8-0-5-0-7-0-3---|
G|----------------------------------|
C|----------------------------------|

Bridge Chords
D|---------------------------------|---------------------------------|
A|---------------------------------|---------------------------------|
F|---------------------------------|-4-------------------------------|
C|-5---------------4---------------|-4---------------0---------------|
G|-5---------------4---------------|-2---------------0---------------|
C|-5---------------4---------------|-----------------0---------------|

D|---------------------------------|---------------------------------|
A|---------------------------------|---------------------------------|
F|---------------------------------|-4~------------------------------|
C|-5~--------------4~--------------|-4~----------------------0-------|
G|-5~--------------4~--------------|-2~--------------0-0-0-0-0-------|
C|-5~--------------4~--------------|-----------------0-0-0-0-0-------|

Bridge Riff 2 x4

Chorus Transition
D|----------------------------------|
A|----------------------------------|
F|----------------------------------|
C|-5-------5------------------------|
G|-5-------5-------3--2--0--3--2--0-|
C|-5-------5-------3--2--0--3--2--0-|

Chorus x2

Chorus Variation x3
D|---------------------------------|
A|---------------------------------|
F|---------------------------------|
C|-----5-------5-------4-------4---|
G|-5-5-5---5-5-5---4-4-4---4-4-4---|
C|-5-5-5---5-5-5---4-4-4---4-4-4---|

End
D|----------------------------------|---------------------------------|
A|----------------------------------|---------------------------------|
F|----------------------------------|---------------------------------|
C|-----5-------5--------------------|-0-------------------------------|
G|-5-5-5---5-5-5---3--2--0--3--2--0-|-0-------------------------------|
C|-5-5-5---5-5-5---3--2--0--3--2--0-|-0-------------------------------|
comments
We did not receive enough feedback on this tab! Please rate:
print report bad tab
1 2 3 4 5
I want to post or [tab]
guest
You may want to rate the tab now too:
select rating
Please do not post tabs as comments. Select "correction" instead!