Oops, an error
Loading. Please wait.

Godfather Bass Tab

version 1
version 1

Whole song

Interactive

6,149 views 3 this week
1 commentread comment
1 2 3 4 5
please rate
add to favorites
launch autoscroll
font size
0
reset
guitar tuner
Autoscroll
slow
fast
+/-
esc
set tempo
stop
Help us to improve Ultimate-Guitar.com Take our survey!
×
Difficulty
novice
I was looking for some tabs, when this song came to my mind just fooling around, I 
for the tabs and I found a high pitch one, but I like LOW ones, so I decided to post this one…

THE GODFATHER THEME SONG

G|----------------------------------------------------------|
D|-3-2-3-4-3-3--------3-2-3-4-3-3----------3-2-3-6-3-3-2----|
A|--------------------------------3----------------------2--|
E|----------------------------------------------------------|

G|-0-3-0-2-0------------------0-3-0-2-0-0-3-----------------|
D|0--------------1-3-0-------0--------------0---0-----------|
A|--------------------------------------------4----0--------|
E|----------------------------------------------------------|

You might not use this but anyways:
| /  slide up
| \  slide down
| h  hammer-on
| p  pull-off
| ~  vibrato
| +  harmonic
| x  Mute note
 If youd like to send some comments about the song, or any corrections please feel free 
email me, chugs_93@hotmail.com...
Suggest correction
Give kudos to tab author, rate the tab!
1 2 3 4 5
comments
print report bad tab
1 comment total.
0 reply
sward89 10 wrote on January 15 2012, 10:13 pm

absolutly terrible

guest
You may want to rate the tab now too:
select rating
Please do not post tabs as comments. Select "correction" instead!