Oops, an error
Loading. Please wait.

Godfather Love Theme Tab

version 1
version 1

Whole song

Interactive

14,444 views 15 this week
1 commentread comment
1 2 3 4 5
accurate
x 6
add to favorites
launch autoscroll
font size
0
reset
how to read this tab
guitar tuner
Autoscroll
slow
fast
+/-
esc
set tempo
stop
Help us to improve Ultimate-Guitar.com Take our survey!
×
Author
Difficulty
novice
Godfather (Love Theme)
by Nino Rota

Credit goes to stich96 and gunnerman for figuring this out before I did. I'm just 
compiling a final version and adding what I see as corrections.


Eb tuning:

Part A x2 (0:00, 0:43)

|--9-12-11-9-12-9-11--9---------------9-12-11-9-12-9-11-9----------|
|-9---------------------10-12-9-----9---------------------9-8-7----|
|------------------------------------------------------------------|
|------------------------------------------------------------------|
|------------------------------------------------------------------|
|------------------------------------------------------------------|


|------8-11-------8-9---------------------------8-9-----9-9-9-8-7--|
|-7-10-------7-10----------12-10-9-12-10-10-9-9--------------------|
|------------------------9-----------------------------------------|
|---------------------11-------------------------------------------|
|------------------------------------------------------------------|
|------------------------------------------------------------------|


|-11----9------------------------------|
|---------10-9---9-12-9-7----7-10-7-9--|
|--------------------------------------|
|--------------------------------------| 
|--------------------------------------|
|--------------------------------------|

Part B x2 (1:25, Same thing up a minor 3rd/3 half steps for the most part)


                               1st        2nd
|----12--15--14-12-15-12-14-12-|----------|----------------|
|-12---------------------------|-13-15-12-|-12-11-10-------|
|------------------------------|----------|----------------|
|------------------------------|----------|----------------|
|------------------------------|----------|----------------|
|------------------------------|----------|----------------|

                              
|-------11-14---------11-12-------------------------------------------------|
|-10-13---------10-13----------------------15--13--12--15--13--13--12--12---|
|---------------------------------------12----------------------------------|
|------------------------------------14-------------------------------------|
|---------------------------------------------------------------------------|
|---------------------------------------------------------------------------|

 Part B Endings

1st (1:50)  2nd (2:21)
|---------|-11-12----|
|-11-12---|----------|
|---------|----------|
|---------|----------|
|---------|----------|
|---------|----------|



|------------------------------------------------------------------|
|------------------------------------------------------------------|
|------------------------------------------------------------------|
|-------12-12-----12-----17----12--13-14---------------------------|
|----12----15-14-----15--15-14-14----------------------------------|
|-12---------------------15----------------------------------------|


http://www.youtube.com/watch?v=9hQAO8QTnG8


http://www.youtube.com/watch?v=VTu4eRXNJWY&feature=BF&list=PLBD509848D711A7FB&index=12

Track 7 on the first "Godfather" soundtrack.
Suggest correction
What's this?
You can suggest a correction to this tab. Community and Mods will review your correction and vote to approve or reject it.
comments
print report bad tab
1 comment total.
0 reply
Matieusz 11 wrote on August 24 2014, 04:43 am

Great tab!

guest
You may want to rate the tab now too:
select rating
Please do not post tabs as comments. Select "correction" instead!