Oops, an error
Loading. Please wait.

Love Theme From The Godfather Tab

124 views 6 this week
no commentswrite comment
1 2 3 4 5
x 3
add to favorites
launch autoscroll
font size
0
reset
how to read this tab
guitar tuner
×
Best way to learn
"Love Theme From The Godfather"
Autoscroll
slow
fast
+/-
esc
set tempo
stop
Author
Difficulty
  follow
intermediate
About this tab version
I've added the whole song, (the part where its transposed up three frets to fret 11) and the outro as well. Was this info helpful? Yes No
[Verse]
    
e|--8-11-10-11-8-10-8------------8-11-10-11-8-10-8----------------7-10-------|
B|-8-----------------9-11-8-----8-------------------8-7-6-----6-9------------|
G|---------------------------------------------------------------------------|
D|---------------------------------------------------------------------------|
A|---------------------------------------------------------------------------|
E|---------------------------------------------------------------------------|

e|-----7-8--------------------------7-8----88-7-6--1010-8--------------------|
B|-6-9-------------11-9-8-11-9-9-8-8-----------------------9-8--8-11-8-6-----|
G|---------------8-----------------------------------------------------------|
D|------------10-------------------------------------------------------------|
A|---------------------------------------------------------------------------|
E|---------------------------------------------------------------------------|


e|---------------------------------------------------------------------------|
B|-6-9-7-8-------------------------------------------------------------------|
G|---------------------------------------------------------------------------| (then repeat once)
D|---------------------------------------------------------------------------|
A|---------------------------------------------------------------------------|
E|---------------------------------------------------------------------------|


e|----11-14-13-11-14-11-13-11----------------11-14-13-11-14-11-13-11---------|
B|-11-------------------------12-14-11----11-------------------------11-10-9-|
G|---------------------------------------------------------------------------|
D|---------------------------------------------------------------------------|
A|---------------------------------------------------------------------------|
E|---------------------------------------------------------------------------|


e|------10-13------10-11-------------------------------10-11----11-11-10-9---|
B|-9-12-------9-12--------------14-12-11-14-12-12-11-11----------------------|
G|---------------------------11----------------------------------------------|
D|------------------------13-------------------------------------------------|
A|---------------------------------------------------------------------------|
E|---------------------------------------------------------------------------|

e|-13-13-11------------------------------------------------------------------|
B|----------12-11---11-14-11-9--9-12-10-11-----------------------------------|
G|---------------------------------------------------------------------------|
D|---------------------------------------------------------------------------|
A|---------------------------------------------------------------------------|
E|---------------------------------------------------------------------------|


[Outro]

e|----11-14-13-11-14-11-13-11----------------11-14-13-11-14-11-13-11---------|
B|-11-------------------------12-14-11----11-------------------------11-10-9-|
G|---------------------------------------------------------------------------|
D|---------------------------------------------------------------------------|
A|---------------------------------------------------------------------------|
E|---------------------------------------------------------------------------|

e|------10-13------10-11-----------------------------------------------------|
B|-9-12-------9-12-----------------------------------------------------------|
G|----------------------------6-4-3-6-4-4-3-3--7-8---------------------------|
D|--------------------------4------------------------------------------------|
A|------------------------6--------------------------------------------------|
E|---------------------------------------------------------------------------|


************************************
NOTE: Put vibrato on the notes where it sounds correct (listen to the soundtrack version for help on where to
emphasise vibrato)
Suggest correction
Give kudos to tab author, rate the tab!
1 2 3 4 5
comments
print report bad tab
guest
You may want to rate the tab now too:
select rating
Wanna post a correction for this tab? Suggest correction