Oops, an error
Loading. Please wait.

Speak Softly Love Tab

version 3
version 3

Whole song

Interactive

5,604 views 6 this week
no commentswrite comment
1 2 3 4 5
excellent!
x 3
add to favorites
launch autoscroll
font size
0
reset
how to read this tab
guitar tuner
Autoscroll
slow
fast
+/-
esc
set tempo
stop
Help us to improve Ultimate-Guitar.com Take our survey!
×
Author
Difficulty
novice
E||--------1--0-----1-----0--|--------------------1--0--|
B||-----3--------3-----3-----|--3-----1--------3--------|
G||--2-----------------------|-----3-----2--2-----------|
D||--------------------------|--------------------------|
A||--------------------------|--------------------------|
E||--------------------------|--------------------------|

-----1-----0--------------|-----------0--------------|
--3-----3-----3-----------|--------2-----------2--3--|
-----------------2--1--0--|--0--3--------0--3--------|
--------------------------|--------------------------|
--------------------------|--------------------------|
--------------------------|--------------------------|

--------------------------|--------------------------|
--------1--------1--------|--------------3--3--2--1--|
-----------3--2-----3--3--|--2--2--------------------|
--0--3--------------------|-----------0--------------|
--------------------------|--------4-----------------|
--------------------------|--------------------------|

--0-----------------------|--------------------1--0--|
-----3-----------1--------|-----------------3--------|
--------3--2--2-----2--0--|--0--3--1--2--2-----------|
--------------------------|--------------------------|
--------------------------|--------------------------|
--------------------------|--------------------------|

-----1-----0--------------|--------1--0-----1-----0--|
--3-----3-----3-----1-----|-----3--------3-----3-----|
-----------------3-----2--|--2-----------------------|
--------------------------|--------------------------|
--------------------------|--------------------------|
--------------------------|--------------------------|

-----------------------0--|--------------------------|
--3-----------------2-----|--------2--3--------1-----|
-----2--1--0--0--3--------|--0--3-----------------3--|
--------------------------|--------------0--3--------|
--------------------------|--------------------------|
--------------------------|--------------------------|

--------------------------|
-----1--------------2--3--|
--2-----3--3--2--2--------|
--------------------------|
--------------------------|
--------------------------|
Suggest correction
Give kudos to tab author, rate the tab!
1 2 3 4 5
comments
print report bad tab
guest
You may want to rate the tab now too:
select rating
Wanna post a correction for this tab? Suggest correction