Oops, an error
Loading. Please wait.

About A Girl Bass Tab

version 1
version 1

Acoustic

Whole song

Interactive

9,641 views 9 this week
2 commentsread comments
1 2 3 4 5
x 3
add to favorites
launch autoscroll
font size
0
reset
guitar tuner
Autoscroll
slow
fast
+/-
esc
set tempo
stop
Help us to improve Ultimate-Guitar.com Take our survey!
×
Author
Album|Unplugged In New York
Year|1993/released Nov 1 1994


(Guitar will play Intro 4 times then bass comes in)


Intro

G|----------------------------|
D|----------------------------|
A|----------------------------|
E|--0-00-3-333----------------|


Verse

G|----------------------------------------|
D|---------------------5---4--------------|
A|-------------0h5-7-7---6---5------------|
E|--0-00-3-33-----------------------------|


Chorus

G|---------------------------------------------------------|
D|---------------------------------------------------------|
A|--4-4-4-------------------------------4-4-4--b4-4-44-----|
E|--------4-4-4--2-2-2--2--2-2-2--4-4-4--------------------|



Chorus End 1                    Chorus End 2 

G|------------------------------|------------------------------------|
D|------------------------------|------------------------------------|
A|------7-7------3-333----------|------7-7------3333333333333333-----|
E|--5-5-----5-55----------------|--5-5-----5-55----------------------|


Guitar solo

G|----------------------------------------|
D|---------------------5---4--------------|
A|-------------0h5-7-7---6---5------------|
E|--0-00-3-33-----------------------------|



Song Structure:

Intro (x4) 
Verse (x4)
Chorus (x1)
Chorus End 1 (x1)
Intro (x4)
Verse (x4)
Chorus (x1)
Chorus End 1 (x1)
Intro (x4)
Guitar Solo (x4)
Chorus (x1)
Chorus End 1 (x1)
Chorus End 2 (x1)
Intro (x7)

G|-------------------|
D|-------------------|
A|-----------------0~|
E|--0-00--3-33-----0~|

That's it simple
Please rate or comment what you think.
Suggest correction
Give kudos to tab author, rate the tab!
1 2 3 4 5
comments
print report bad tab
2 comments total.
+1 reply
B.C.RichRulz 331 Aug 19, 2009 02:38 AM

looks pretty good to mee good job

0 reply
Stewielicious 10 Jan 17, 2014 10:53 AM

two changes:
- the whole tab a half step down (Eb-Ab-Db-Gb)
- chorus
Ab---4-4------------4-4------------7-7-7-7----333
Eb-------4-4-22-2-2-----4-4-22-2-2---------555---

the rest is quite ok...

guest
You may want to rate the tab now too:
select rating
Wanna post a correction for this tab? Suggest correction