Oops, an error
Loading. Please wait.

About A Girl Chords

version 1
version 1

Solo

Whole song

Interactive

110,545 views 126 this week
7 commentsread comments
1 2 3 4 5
x 30
add to favorites
launch autoscroll
font size
0
reset
transpose
0
reset
display chords
guitar tuner
Autoscroll
slow
fast
+/-
esc
set tempo
stop
Help us to improve Ultimate-Guitar.com Take our survey!
×
Brilliant song and I'd hate to mess up the tabs but anyway!

The verse is very simply

Em, G

and the chorus is

C#, G#, F#, E, A, C

and the solo, well, there's loads of versions of it but this is the
simplist and it sounds exactly like the real song. Sounds great on acoustic and electric
so just pick up a guitar and try it!

It's something like this:

e|---------------------------------------------------------------|
B|---------------------------------------------------------------|
G|---------------------------------------------------------------|
D|----------------5---7---9--9--9---12---12----------------------|
A|--------5---7--------------------------------------------------|
E|----0----------------------------------------------------------|

play this 4 times and then go back in C#, G#, F#, do this twice
then go to E, A, C once and then back to the original Em, G pattern

The patterns easy to figure out from the song.
Suggest correction
comments
print report bad tab
7 comments total. Showing first comments.
+2 reply
skatersic666 557 Apr 07, 2004 12:00 AM

The solo you tabbed out was partialy right but i play it like this:

|---------------------------------------------------------------|
|---------------------------------------------------------------|
|-------------------------------------------12--12--12----------|
|----------------5---7---9--9--9---12---12----------------------|
|--------5---7--------------------------------------------------|
|----0----------------------------------------------------------|

It sounds good either way but i like to play it my way.

+1 reply
dark-cube2 10 Aug 19, 2005 12:00 AM

no, it sounds better if u play the 12 on the D and G at the same time

+1 reply
Richey 16 Jan 10, 2006 07:20 AM

yeah dark-cube2. i play it like that, too. sounds much better.
in some live acts kurt plays even the 9 on D and G. sounds great, too.

guest
You may want to rate the tab now too:
select rating
Wanna post a correction for this tab? Suggest correction