Oops, an error
Loading. Please wait.

About A Girl Bass Tab

version 3
version 3

Whole song

Interactive

73,362 views 36 this week
9 commentsread comments
1 2 3 4 5
x 37
add to favorites
launch autoscroll
font size
0
reset
guitar tuner
Autoscroll
slow
fast
+/-
esc
set tempo
stop
Help us to improve Ultimate-Guitar.com Take our survey!
×
ABOUT A GIRL- NIRVANA
Tabbed By : ryan plazizzant
e-mail: waynes_world657@hotmail.com
Tuning: standard

 [Intro] x4
G|----------------------|
D|----------------------|
A|----------------------|
E|-0-0-0-3-3-3-3--------|

 [Verse] x4
G|-----------------------------|
D|------------------5-4--------|
A|--------------5-7--6-5-------|
E|-0-0-0-3-3-3-----------------|

 [Chorus] x1
G|----------------------------------------------------|
D|------------------------------------4-4-4-4-4-4-4---|
A|--4-4-4-----------------4-4-4-----------------------|
E|--------4-4-4-2-2-2-2-2------4-4-4------------------|

 [Bridge] x1
G|---------------------------------------------|
D|---------------------------------------------|
A|-------7-7--0-0-0-3-3-3-3--------------------|
E|--0-0-0--------------------------------------|

 [Fill]
G|---------------------------------|
D|---------------------------------|
A|---------------------------------|
E|-3-3-3-3-3-3-3-3-3-3-3-3-3-3-3-3-|

[Intro] x4 
[Verse] x4
[Chorus] x1
[Bridge] x1
[Intro] x4
[Verse] x4
[Chorus] x1
[Bridge] x1
[Intro] x4
[Verse] x4
[Chorus] x1
[Bridge] x2
[Fill]
[Intro] x8
[End]
G|---|
D|---|
A|---|
E|-0-|
Suggest correction
comments
print report bad tab
9 comments total. Showing first comments.
0 reply
Misfit66 20 Mar 26, 2006 06:31 PM

spot-on dude, well done

+2 reply
xChelx 10 Jul 12, 2006 01:31 PM

This tab's not 100% right. The Intro is slightly different as well as the end section of the chorus. There are also 3x 7s in the bridge.

0 reply
Mr.AK-47 31 Dec 27, 2006 07:20 PM

Good tab!

guest
You may want to rate the tab now too:
select rating
Wanna post a correction for this tab? Suggest correction