Oops, an error
Loading. Please wait.

About A Girl Tab

version 6
version 6

Interactive

Video

47,852 views 216 this week
1 commentread comment
1 2 3 4 5
x 16
add to favorites
launch autoscroll
font size
0
reset
how to read this tab
guitar tuner
Autoscroll
slow
fast
+/-
esc
set tempo
stop
Help us to improve Ultimate-Guitar.com Take our survey!
×
Author
-------------------------------------------------------------------------------
                             SONG NAME - Band Name
-------------------------------------------------------------------------------
Tabbed by:know101

Tuning: Standard
READ THIS IMPORTANT

Fhe doesn't always play the full chord, but i will tab the full chords
just to keep it simple, just listen to the song it's pretty obvious, when he is only 
playing the first 2 or 3 strings, and even
at that no one is going to notice if you just play the full chords

also this is not he unplugged version, that version has more complicated strum patterns, 
this the version with the
distorted guitars


[Verse]

   D  D  U   D  U  D  U    D  U  D   U  U  D  U
e|-0--0--0---3--3--3--3-|--0--0--0---3--3--3--3--|
B|-0--0--0---0--0--0--0-|--0--0--0---0--0--0--0--|
G|-0--0--0---0--0--0--0-|--0--0--0---0--0--0--0--|
D|-2--2--2---0--0--0--0-|--2--2--2---0--0--0--0--|
A|-2--2--2---2--2--2--2-|--2--2--2---2--2--2--2--|
E|-0--0--0---3--3--3--3-|--0--0--0---3--3--3--3--| Just play until you get through the verse


[Chorus]

    d  d  u  d  d  u     D  U  D  U  U  D  U
e|--------------------|------------------------|-------------------------------|
B|--------------------|------------------------|-------------------------------|
G|--6--6--6-----------|------------------------|-------------------------------|
D|--6--6--6--6--6--6--|---4--4--4--4--4--4--4--|---Repeat previous 2 Bars------|
A|--4--4--4--6--6--6--|---4--4--4--4--4--4--4--|-------------------------------|
E|-----------4--4--4--|---2--2--2--2--2--2--2--|-------------------------------|

    D  D  U  D  U  D  U   Same strum pattern as previous  bar
e|----------------------|----------------------------|
B|----------------------|----------------------------|
G|-----------9--9--9--9-|--2--2--2--5--5--5--5-------|
D|--2--2--2--9--9--9--9-|--2--2--2--5--5--5--5-------|
A|--2--2--2--7--7--7--7-|--0--0--0--3--3--3--3-------|
E|--0--0--0-------------|----------------------------|


[Solo]

                         D  D U    D D U    D  U
e|---------------------|---------|-------------------|
B|---------------------|--7-7-7/9|-9-9-9/12-12-12----|
G|---------------------|--7-7-7/9|-9-9-9/12-12-12----|
D|---------------------|--7-7-7/9|-9-9-9/12-12-12----| play 4 times
A|---------------5-h-7-|---------|-------------------|
E|-0--0-h-5-h-7--------|---------|-------------------|


[Random bit]

     D  U  D  U  D  U  D  U
e|---------------------------|
B|---------------------------|
G|---5--5--5--5--5--5--5--5--|
D|---5--5--5--5--5--5--5--5--|   Play Twice
A|---3--3--3--3--3--3--3--3--|
E|---------------------------|

[Intro]
(same as verse just shorter)

[Verse]
[Chorus]
[Verse]
[Chorus]
[Solo]
[Chorus]
[Verse]
[Chorus]
[Random Bit]
[Outro]
(same as verse just shorter)
 
************************************

| h  Hammer-on
| /  Slide up 

************************************
Suggest correction
comments
print report bad tab
1 comment total.
+1 reply
shameforsky 10 Sep 29, 2013 06:40 AM

I think that this is most accurate version of this song. <3 love this

guest
You may want to rate the tab now too:
select rating
Wanna post a correction for this tab? Suggest correction