Oops, an error
Loading. Please wait.

Aint It A Shame Tab

version 2
version 2

Whole song

5,188 views 18 this week
no commentswrite comment
1 2 3 4 5
excellent!
x 4
add to favorites
launch autoscroll
font size
0
reset
how to read this tab
guitar tuner
Autoscroll
slow
fast
+/-
esc
set tempo
stop
Help us to improve Ultimate-Guitar.com Take our survey!
×
Author
Album|Sliver:The Best Of The Box
Year|1989

Tuning|Standard

Intro (x2)

e|-0-0-------0-0-------0-0-------0-0--0-0-0------|
b|-0-0-------0-0-------0-0-------0-0--0-0-0------|
G|-1-1-------1-1-------1-1-------1-0--0-0-0------|
D|-2-2-------2-2-------2-2-------2-2--2-2-2------|
A|-2-2-2-2-2-2-2-2-2-2-2-2-2-2-2-2-2--2-2-2------|
E|-----3-3-3-----3-3-3-----3-3-3-----------------|

Chords Used:

   
   E    B    A  
e|-0----2----0----|
b|-0----4----2----|
G|-1----4----2----|
D|-2----4----2----|
A|-2----2----0----|
E|----------------|

E
Ain't it a shame to go fishin' on a Sunday
Ain't it a shame

Ain't it a shame to go fishin' on a Sunday
           B
Ain't it a shame
           E
Ain't it a shame to go fishin' on a Sunday
             A
When you got Monday, Tuesday, Wednesday
   E                 B
Oh Thursday, Friday, Saturday
           E
Ain't it a shame



E
Ain't it a shame to have a drink on a Sunday
Ain't it a shame

Ain't it a shame to have a drink on a Sunday
           B
Ain't it a shame
           E
Ain't it a shame to have a drink on a Sunday
             A
When you got Monday, Tuesday, Wednesday
   E                 B
Oh Thursday, Friday, Saturday
           E
Ain't it a shame



The Rest of the song is the same chord pattern.
Suggest correction
comments
print report bad tab
guest
You may want to rate the tab now too:
select rating
Wanna post a correction for this tab? Suggest correction