Oops, an error
Loading. Please wait.

All Apoligies Tab

20,556 views 102 this week
1 commentread comment
1 2 3 4 5
x 4
add to favorites
launch autoscroll
font size
0
reset
how to read this tab
guitar tuner
Autoscroll
slow
fast
+/-
esc
set tempo
stop
Help us to improve Ultimate-Guitar.com Take our survey!
×
Author
Difficulty
Tuning
novice
D# G# C# F# A# D#
ALL APOLOGIES
                             As recorded by Nirvana
                              
Tabbed by:italyguy


Words and Music by Kurt Cobain



Gtr I (Db Ab Db Gb Bb Eb) - 'Untitled'
Tune all down a half step and the low E, which is now an Eb is tuned to Db. 


  [Intro]
    Moderately 
   4/4 
    Gtr I
D#|------------------------|------------------------|
A#|------------------------|------------------------|
F#|------------------------|------------------------|
C#|------------------------|----------10s12-12-10-9-|
G#|-9-9-10-9-10s12-12-10-9-|-----10-9---------------|
D#|-0----------------------|-0-0----0---------------|


D#|------------------------|----------------------|
A#|------------------------|----------------------|
F#|------------------------|----------11-11-9-----|
C#|------------------------|--------------0-0-12--|
G#|---9-10---10s12-12-10-9-|---9-10-9-------------|
D#|-0------0-----0---------|-0------0-------------|


D#|------------------------|------------------------|
A#|------------------------|------------------------|
F#|------------------------|------------------------|
C#|------------------------|----------10s12-12-10-9-|
G#|---9-10---10s12-12-10-9-|---9-10-9-----------0---|
D#|-0------0---------------|-0------0---------------|


D#|------------------------|---------------------||
A#|------------------------|---------------------||
F#|------------------------|----------11-11-9----||
C#|------------------------|------------------12-||
G#|---9-10-9-10s12-12-10-9-|---9-10-9------------||
D#|-0------0---------------|-0------0------------||


  [Verse]
D#|------------------------|--------------------------|
A#|------------------------|--------------------------|
F#|------------------------|----------------<12>------|
C#|------------------------|----------10s12--12--10-9-|
G#|---9-10---10s12-12-10-9-|---9-10-9-----------------|
D#|-0------0---------------|-0------0-----------------|


D#|------------------------|--------------------------|
A#|------------------------|--------------------------|
F#|------------------------|--------------------------|
C#|------------------------|----------10s12-12-10-9---|
G#|---9-10-9-10s12-12-10-9-|---9-10-9-----------------|
D#|-0-0----0-----0---------|-0-0----0-----------0-----|


D#|-------------------------|--------------------------|
A#|-------------------------|--------------------------|
F#|-------------------------|--------------------------|
C#|-------------------------|------------10s12-12-10-9-|
G#|---9-10-9-10s12--12-10-9-|-----9-10-9--------0------|
D#|-0------0----------------|--0-------0---------------|


D#|-------------------------|------------------------------|
A#|-------------------------|------------------------------|
F#|-------------------------|------------------<12>--------|
C#|-------------------------|------------10s12--12--10-9---|
G#|-9-9-10---10s12--12-10-9-|-----9-10-9-------------0-----|
D#|-0------0-----0----------|--0--0----0-------------------|
|


D#|-------------------------|--------------------------|
A#|-------------------------|--------------------------|
F#|-------------------------|--------------------------|
C#|-------------------------|------------10s12-12-10-9-|
G#|-9-9-10---10s12--12-10-9-|-----9-10-9-----------0---|
D#|-0------0-----0----------|--0-------0---------------|
|


D#|-------------------------|----------------------------|
A#|-------------------------|----------------------------|
F#|-------------------------|----------------------------|
C#|-------------------------|------------10s12-12-10-9---|
G#|-9-9-10-9-10s12--12-10-9-|-----9-10-9-----------0-----|
D#|-0------0-----0----------|--0--0----0-----------------|


D#|------------------------|------------------------|
A#|------------------------|------------------------|
F#|------------------------|------------------------|
C#|------------------------|----------10s12-12-10-9-|
G#|-9-9-10---10s12-12-10-9-|---9-10-9-----------0---|
D#|-0------0-----0---------|-0-0----0---------------|


D#|------------------------|--------------------------||
A#|------------------------|--------------------------||
F#|------------------------|-------------11-11\-------||
C#|------------------------|-----------------0--------||
G#|---9-10-9-10s12-12-10-9-|---9-10-9-10-----0--0-----||
D#|-0-0----0---------------|-0-0----0-------------5---||

CHORUS or (use 355xxx if only tuned to drop D, not an additional half step down)
   G 
            In the sun___         in the sun   I feel as one
D#|--------------------------------------------------------------|-
A#|--------------------------------------------------------------|-
F#|--------------------------------------------------------------|-
C#|-5-5-5-x--5-5-5-5--------5-5-5-x--5-5-5-5--5-5-5--5-5-5-5-----|-
G#|-5-5-5-x--5-5-5-5--------5-5-5-x--5-5-5-5--5-5-5--5-5-5-5-----|-
D#|-5-5-5-x--5-5-5-5--------5-5-5-x--5-5-5-5--5-5-5--5-5-5-5-----|-

            In the sun_____,        In the sun__________
D#|--------------------------------------------------------------|-
A#|--------------------------------------------------------------|-
F#|--------------------------------------------------------------|-
C#|-5-5-5---5-5-5-5--------5-5-5---5-5-5-5----5-5--5-5-5-5-------|-
G#|-5-5-5---5-5-5-5--------5-5-5---5-5-5-5----5-5--5-5-5-5-------|-
D#|-5-5-5---5-5-5-5--------5-5-5---5-5-5-5----5-5--5-5-5-5-------|-


[Bridge]
   A  
   Married___                     Buried___            Married__
D#|-0---------------------------|-0---------------------0--------------|-
A#|-2-------------2------------2|-2--2----2-------------2--------------|-
F#|-2----2----2---2----2-------2|-2--2----2-------2-----2---------2--2-|-
C#|-2-----------0------2-2---2--|-2------------2--2-----2-------2----2-|-
G#|-0------0---------------0----|-0----------0----------0--0--0--------|-
D#|-----------------------------|--------------------------------------|-

    Buried
D#|-0---------------0--0-0-0---0-0-0---0---0---0-----------|-
A#|-2----2-----2----2--2-2-2---2-2-2---2---2---2-----------|-
F#|-2----2---2-2----2--2-2-2---2-2-2---2---2---2-----------|-
C#|-2--------2------2--2-2-2---2-2-2---2---2---2-----------|-
G#|-0---------------0--0-0-0---0-0-0---0---0---0-----------|-
D#|--------------------------------------------------------|-




  [Verse]
    Gtr I
D#|------------------------|------------------------|
A#|------------------------|------------------------|
F#|------------------------|------------------------|
C#|------------------------|----------10s12-12-10-9-|
G#|-9-9-10-9-10s12-12-10-9-|---9-10-----------------|
D#|-0----------------------|-0------0---------------|


D#|------------------------|---------------------|
A#|------------------------|---------------------|
F#|------------------------|----------11-11-9----|
C#|------------------------|--------------0---12-|
G#|---9-10---10s12-12-10-9-|---9-10--------------|
D#|-0------0---------------|-0------0------------|


D#|------------------------|------------------------|
A#|------------------------|------------------------|
F#|------------------------|------------------------|
C#|------------------------|----------10s12-12-10-9-|
G#|---9-10---10s12-12-10-9-|---9-10-9---------------|
D#|-0------0---------------|-0------0---------------|


D#|------------------------|----------------------------|
A#|------------------------|----------------------------|
F#|------------------------|----------------<12>--------|
C#|------------------------|----------10s12--12--10-9---|
G#|-----10-9-10s12-12-10-9-|-----10-9-------------------|
D#|-0-0----0---------------|-0-0----0-------------------|


D#|-------------------------|--------------------------|
A#|-------------------------|--------------------------|
F#|-------------------------|--------------------------|
C#|-------------------------|------------10s12-12-10-9-|
G#|-9-9-10---10s12--12-10-9-|-----9-10-----------------|
D#|-0------0-----0----------|--0-------0---------------|


D#|-------------------------|----------------------------|
A#|-------------------------|----------------------------|
F#|-------------------------|------------------12--------|
C#|-------------------------|------------------12-10-9---|
G#|-9-9-10---10s12--12-12-9-|-------10-9-10s11-----------|
D#|-0------0----------------|--0--0----0-----------------|


D#|-------------------------|---------------------------|
A#|-------------------------|---------------------------|
F#|-------------------------|---------------------------|
C#|-------------------------|------------10s12--12-10-9-|
G#|-9-9-10---10s12--12-12-9-|-----9-10-9---------0------|
D#|-0------0----------------|--0-------0----------------|


D#|----------------------------|------------------------||
A#|----------------------------|------------------------||
F#|----------------------------|----------------4-4-----||
C#|------------------<12>------|----------------5-5-----||
G#|----9-10---10s12---12--10-9-|-----9-10-------5-5-----||
D#|--0------0-----0------------|--0-------0-0-0-5-5p0---||
|

[Chorus]
   G 
            In the sun___         in the sun   I feel as one
D#|--------------------------------------------------------------|-
A#|--------------------------------------------------------------|-
F#|--------------------------------------------------------------|-
C#|-5-5-5-x--5-5-5-5--------5-5-5-x--5-5-5-5--5-5-5--5-5-5-5-----|-
G#|-5-5-5-x--5-5-5-5--------5-5-5-x--5-5-5-5--5-5-5--5-5-5-5-----|-
D#|-5-5-5-x--5-5-5-5--------5-5-5-x--5-5-5-5--5-5-5--5-5-5-5-----|-

            In the sun_____,        In the sun__________
D#|--------------------------------------------------------------|-
A#|--------------------------------------------------------------|-
F#|--------------------------------------------------------------|-
C#|-5-5-5---5-5-5-5--------5-5-5---5-5-5-5----5-5--5-5-5-5-------|-
G#|-5-5-5---5-5-5-5--------5-5-5---5-5-5-5----5-5--5-5-5-5-------|-
D#|-5-5-5---5-5-5-5--------5-5-5---5-5-5-5----5-5--5-5-5-5-------|-

[Bridge]
   A  
   Married___                     Buried___            Married__
D#|-0---------------------------|-0---------------------0--------------|-
A#|-2-------------2------------2|-2--2----2-------------2--------------|-
F#|-2----2----2---2----2-------2|-2--2----2-------2-----2---------2--2-|-
C#|-2-----------0------2-2---2--|-2------------2--2-----2-------2----2-|-
G#|-0------0---------------0----|-0----------0----------0--0--0--------|-
D#|-----------------------------|--------------------------------------|-

    Buried
D#|-0---------------0--0-0-0---0-0-0---0---0---0-----------|-
A#|-2----2-----2----2--2-2-2---2-2-2---2---2---2-----------|-
F#|-2----2---2-2----2--2-2-2---2-2-2---2---2---2-----------|-
C#|-2--------2------2--2-2-2---2-2-2---2---2---2-----------|-
G#|-0---------------0--0-0-0---0-0-0---0---0---0-----------|-
D#|--------------------------------------------------------|-

  [Outro]
D#|------------------------|--------------------------|
A#|------------------------|--------------------------|
F#|------------------------|----------------<12>------|
C#|------------------------|----------10s12--12--10-9-|
G#|-9-9-10-9-10s12-12-10-9-|---9-10-9-----------------|
D#|--------0---------------|-0------0-----------------|


D#|------------------------|---------------------|
A#|------------------------|---------------------|
F#|------------------------|----------11-11-9----|
C#|------------------------|------------------12-|
G#|---9-10---10s12-12-10-9-|---9-10--------------|
D#|-0------0---------------|-0------0------------|


D#|------------------------|------------------------|
A#|------------------------|------------------------|
F#|------------------------|------------------------|
C#|------------------------|----------10s12-12-10-9-|
G#|-9-9-10-9-10s12-12-10-9-|-----10-9---------------|
D#|-0------0---------------|-0-0----0---------------|


D#|--------------------------|---------------------|
A#|--------------------------|---------------------|
F#|--------------------------|----------11-11-9----|
C#|----------------<12>------|------------------12-|
G#|---9-10---10s12--12--10-9-|---9-10-9------------|
D#|-0------0-----------------|-0------0------------|


D#|------------------------|------------------------|
A#|------------------------|------------------------|
F#|------------------------|------------------------|
C#|------------------------|----------10s12-12-10-9-|
G#|-9-9-10-9-10s12-12-10-9-|---9-10-9---------------|
D#|-0------------0---------|-0----------------------|


D#|------------------------|---------------------|
A#|------------------------|---------------------|
F#|------------------------|----------11-11-9----|
C#|------------------------|------------------12-|
G#|---9-10-9-10s12-12-10-9-|---9-10--------------|
D#|-0------0-----0---------|-0------0------------|


D#|------------------------|--------------------------|
A#|------------------------|--------------------------|
F#|------------------------|----------------<12>------|
C#|------------------------|----------10s12--12--10-9-|
G#|-9-9-10---10s12-12-10-9-|---9-10-9-------------0-0-|
D#|-0------0-----0---------|-0------0-----------------|


D#|------------------------|----------------------------|
A#|------------------------|----------------------------|
F#|------------------------|----------------------------|
C#|------------------------|----------------<12>--------|
G#|---9-10---10s12-12-10-9-|---9-10-9-10s12--12--10-9---|
D#|-0------0-----0---------|-0------0-----0-------------|


D#|------------------------|------------------------|
A#|------------------------|------------------------|
F#|------------------------|------------------------|
C#|------------------------|------------------------|
G#|---9-10---10s12-12-10-9-|-----10---10s12-12-10-9-|
D#|-0------0-------------0-|-0-0----0-----0---------|


    All  in  all  is  all  we all  are
D#|------------------------------------|
A#|------------------------------------|
F#|------------------------------------|
C#|------------------------------------|
G#|-9-------9----9----------9--9--9----|
D#|-0---0---0----0---0---0--0-----0----|

     
   All in all is all we all are     All in all is all we all are
D#|-------------------------------|-------------------------------|
A#|-------------------------------|-------------------------------|
F#|-------------------------------|-------------------------------|
C#|-------------------------------|-------------------------------|
G#|-9-----9-------9-----9-------9-|-------9-----9-9-9-9--9--------|
D#|-0--0-----0--0----0-----0--0---|-0--0-----0-----------0--0-----|



   All in all is all we all are     All in all is all we all are
D#|-------------------------------|-------------------------------|
A#|-------------------------------|-------------------------------|
F#|-------------------------------|-------------------------------|
C#|-------------------------------|-------------------------------|
G#|-------9-----9-------------9---|-------------------------------|
D#|-0--0-----0-----0--------0-----|-0-----------------------------|


   All in all is all we all are     All in all is all we are
D#|-------------------------------|-------------------------------|
A#|-------------------------------|-------------------------------|
F#|-------------------------------|-------------------------------|
C#|-------------------------------|-------------------------------|
G#|-------------------------------|-------------------------------|
D#|-------------------------------|-------------------------------|


    All in all is all we all are_____
D#|-----------------------------------|
A#|-----------------------------------|
F#|-----------------------------------|
C#|-----------------------------------|
G#|-----------------------------------|
D#|-----------------------------------|




Duration Legend
---------------
W - whole; H - half; Q - quarter; E - 8th; S - 16th; T - 32nd; X - 64th; a - acciaccatura
+ - note tied to previous; . - note dotted; .. - note double dotted
Uncapitalized letters represent notes that are staccato (1/2 duration)
Irregular groupings are notated above the duration line
Duration letters will always appear directly above the note/fret number it represents the
duration for.  Duration letters with no fret number below them represent rests.  Multi-
bar rests are notated in the form Wxn, where n is the number of bars to rest for.  Low
melody durations appear below the staff


Misc Legend
-----------
 |  - bar
||  - double bar
||o - repeat start
o|| - repeat end
*|  - double bar (ending)
 :  - bar (freetime)
 $  - Segno
 &  - Coda

************************************

| \  Slide down
| b  Bend
| x  Dead note
| p  Pull-off 

************************************

Kurt Cobain 1967-1994
Suggest correction
comments
print report bad tab
1 comment total.
0 reply
kevin.sidabutar 10 Nov 02, 2014 08:58 PM

Great tab! Just the title is misspelled.

guest
You may want to rate the tab now too:
select rating
Wanna post a correction for this tab? Suggest correction