Oops, an error
Loading. Please wait.
We have an official All Apologies tab made by UG professional guitarists. Check out the tab »
×
by Nirvana
8,943 views 30 this week
2 commentsread comments
1 2 3 4 5
x 10
add to favorites
×
Save as Personal and add changes to this tab that will be seen only by you. Learn more ›
×
You can save this tab as Personal to edit and correct it or add notes. All changes will be seen only by you. Learn more »
launch autoscroll
font size
0
reset
transpose
0
reset
display chords
guitar tuner
backing track
0:00
0:00
edit
Autoscroll
slow
fast
+/-
esc
set tempo
stop
Author
Unregistered
Strumming
There is no strumming pattern for this song yet. and get +5 IQ
[Intro] 
C (4x)

[Verse]
C
What else do I be; all apologies
C
What else could I say; everyone is gay
C
What else could I write; I don't have a right
C
What else should I be; all apologies

[Refrain]
F
In the sun, in the sun I feel as one
F                          G
In the sun, in the sun I'm married
G
Burried (yah, yah, yah, yeah)

[Verse]
C
I wish I was like you; easily amused
C
Find my nest of salt; everyhting's my fault
C
I'll take all the blame; aqua seafome shame
C
Sunburn with freezer burn
C
Choking on the ashes  of her enemies

[Refrain]
F
In the sun, in the sun I feel as one
F                          G
In the sun, in the sun I'm married
G
Burried (yah, yah, yah, yeah)
G       G
Maried, Burried (yah, yah, yah, yeah)

[Outro]
C (4x)
All alone is all we are

            
            
Suggest correction
Creating personal tab
Creating personal tab
You can edit any tab online and save it as your Personal.

You can edit, replace or remove any tab part or add personal notes – all changes will be seen only by you.

Personal tabs can be accessed anytime from any device, even offline.
Learn more »
comments
print report bad tab
2 comments total.
0 reply
aaron.maki 11 Feb 14, 2015 08:57 AM

INTRO

A|----------------------------------------|
E|----------------------------------------|
C|--0--0--1--0--3--3--1--0----0-1-0----|
G|----------------------------------------|

A|----------------------------------------------|
E|--5--5-----3----2---------------------------|
C|---------------------0--1--0---3--3--1--0-|
G|-----------------------------------------------|

A|----------------5--5--3--1-----------|
E|----------------------------------------|
C|--0--1--0-----------------------------|
G|----------------------------------------|

0 reply
aaron.maki 11 Feb 14, 2015 08:58 AM

A|----------------------------------------|
E|----------------------------------------|
C|--0--0--1--0--3--3--1--0----0-1-0----|
G|----------------------------------------|

A|----------------------------------------------|
E|--5--5-----3----2---------------------------|
C|---------------------0--1--0---3--3--1--0-|
G|-----------------------------------------------|

A|----------------5--5--3--1-----------|
E|----------------------------------------|
C|--0--1--0-----------------------------|
G|----------------------------------------|

guest
Wanna post a correction for this tab? Suggest correction