Oops, an error
Loading. Please wait.
We have an official All Apologies tab made by UG professional guitarists. Check out the tab »
×
by Nirvana
1,792 views 9 this week
3 commentsread comments
1 2 3 4 5
x 3
add to favorites
×
Save as Personal and add changes to this tab that will be seen only by you. Learn more ›
×
You can save this tab as Personal to edit and correct it or add notes. All changes will be seen only by you. Learn more »
launch autoscroll
font size
0
reset
guitar tuner
backing track
0:00
0:00
edit
Autoscroll
slow
fast
+/-
esc
set tempo
stop
Author
Difficulty
-------------------------------------------------------------------------------
                             ALL APOLOGIES - Nirvana
-------------------------------------------------------------------------------
Band: Nirvana
Album: In Utero/Nirvana
Bassist: Krist Novoselic
Tabbed by: grungeboyrude
E-mail:grungeboyrude@gmail.com

It really seems like this has been lost in time, but I finally learned it. Feel
free to rate and correct any mistakes.

Tuning:Drop Db: Db, Ab, Db, Gb


Don't play until after the intro. Come in at 0:10

Main Riff x2

Gb|----7-7----7----7-7------|
Db|-0-7---0-7---0-7---0-0-7-|
Ab|-------------------------|
Db|-------------------------|

Verse:"What else should I be?"                                  Last part of the verse:"All Apologies"

Gb|----7-7---7-----7-7--------7-7-----7-----7-7------|                    Gb|-----7-7----------|
Db|-0-7---0-7---0-7---0-0-7--0-7---0-7---0-7---0-0-7-|x2                  Db|--0-7-----17-17\--|
Ab|--------------------------------------------------|                    Ab|------------------|
Db|--------------------------------------------------|                    Db|------------------|

Chorus: "In the Sun..."                                                      "Married,Buried"

Gb|-----------------------------------------------------------------|     Gb|----------|----------|
Db|-----------------------------------------------------------------|     Db|----------|----------|
Ab|-----------------------------------------------------------------|     Ab|-0--------|-0--------|
Db|-5-5-5-5-3-0-3-5-5-3-5-3-3-0-3-4-5-5-5-5-3-0-3-5-5-3-5-2-3-0-3-4-|     Db|----------|----------|

Second Verse: "I wish I was like you.."                            "Chokin on the ashes of her enemy"

Gb|----7-7---7-----7-7--------7-7-----7-----7-7------|                    Gb|-----7-7----------|
Db|-0-7---0-7---0-7---0-0-7--0-7---0-7---0-7---0-0-7-|x2                  Db|--0-7-----17-17\--|
Ab|--------------------------------------------------|                    Ab|------------------|
Db|--------------------------------------------------|                    Db|------------------|

 Back to the Chorus                                                     "Married, Buried" (play twice)

Gb|-----------------------------------------------------------------|     Gb|----------|----------|
Db|-----------------------------------------------------------------|     Db|----------|----------|
Ab|-----------------------------------------------------------------|     Ab|-0--------|-0--------|
Db|-5-5-5-5-3-0-3-5-5-3-5-3-3-0-3-4-5-5-5-5-3-0-3-5-5-3-5-2-3-0-3-4-|     Db|----------|----------|

Bridge

Gb|---------7-7----------7-7---------7-7----------7-7-|
Db|--4-5-4-0------4-5-4-0------4-5-4-0-----4-5-4-0----|
Ab|-5------------5------------5-----------5-----------|
Db|---------------------------------------------------|

"All in all is all we are"

Gb|---------7-7----------7-7---------7-7----------7-7-|
Db|--4-5-4-0------4-5-4-0------4-5-4-0-----4-5-4-0----|x4
Ab|-5------------5------------5-----------5-----------|
Db|---------------------------------------------------|

Outro (part 1)

Gb|-------------------|          Gb|----------------|---------------|
Db|-------------------|x4        Db|----------------|---------------|x2
Ab|-------------------|          Ab|----------------|---------------|
Db|-0-0-0-0--0-0-0-0--|          Db|-0--------------|-0-------------|

Stop playing at 3:30

Well, hope you liked this tab and it was actually correct. I hope you can use it for
your band
ROCK ON NIRVANA!!!!!!!!!!

| /  slide up
| \  slide down
| h  hammer-on
| p  pull-off
| ~  vibrato
| +  harmonic
| x  Mute note
===============================================================================

            
            
Suggest correction
Creating personal tab
Creating personal tab
You can edit any tab online and save it as your Personal.

You can edit, replace or remove any tab part or add personal notes – all changes will be seen only by you.

Personal tabs can be accessed anytime from any device, even offline.
Learn more »
Give kudos to tab author, rate the tab!
1 2 3 4 5
comments
print report bad tab
3 comments total.
0 reply
samwright1112 10 Dec 27, 2015 07:07 AM

Clearly wrong. I feel as you should watch other people play it. Well done for having a go but I think more work could be done into it.

guest
You may want to rate the tab now too:
select rating
Wanna post a correction for this tab? Suggest correction