Oops, an error
Loading. Please wait.

All Apologies Tab

version 5
version 5
8,727 views 27 this week
1 commentread comment
1 2 3 4 5
accurate
x 4
add to favorites
launch autoscroll
font size
0
reset
how to read this tab
guitar tuner
Tab Pro tools
  • play this tab
  • loop segment
  • change instrument
  • show fretboard
  • metronome
×
Best way to learn
"All Apologies"
Autoscroll
slow
fast
+/-
esc
set tempo
stop
Difficulty
novice
-------------------------------------------------------------------------------
ALL APOLOGIES – HOME DEMO - Nirvana
-------------------------------------------------------------------------------
this tab is ONLY correct for the home demo off of With The Lights Out and the Sliver box 
not for the album version.

Tabbed by:Carrie Davies
Email:quietiamsleeping@yahoo.com

Tuning:Kurts guitar is just the slightest bit flat,not enough to worry about though

Acous
e|--------------------------------------------------------------------------------|
B|--------------------------------------------------------------------------------|
G|---------------------------------------------------------------------9-9-7------|
D|-----------------------------8/10-10-8-7-----------------------------------10---|x2
A|-7-7-8-7-8/10-10-8-7-7-7-8-7-------------7-7-8-7-8/10-10-8-7-7-7-8-7------------|
E|-0-----0-------------0-----0-------------0-----0-------------0-----0------------|

e|-------------------------------------------|
B|-------------------------------------------|
G|-------------------------------------------|
D|-----------------------------8/10-10-8-7---|
A|-7-7-8-7-8/10-10-8-7-7-7-8-7---------------|
E|-0-----0-------------0-----0---------------|
What else could I be
All Apologies
What else could I write
I dont wanna fight
What else could I say
All the words were grey
What else could I be

e|-------------------------------------|
B|---------------------------------0---|
G|-----------------------------5-5-0---|
D|-----------------------------5-5-0---|
A|-7-7-8-7-8/10-10-8-7-7-7-8-7-3-3-0---|
E|-0-----0-------------0-----0-3-3-----|
All apologies

e|------------------|
B|------------------|
G|------------------|
D|-3--3-3-3-3-3-3---|
A|-3--3-3-3-3-3-3---|
E|-1--1-1-1-1-1-1---|
In the sun
In the sun
I feel as one
In the sun    (start bringing in bottom strings of the full ver of the F chord)
In the sun

e|---------------------------------------------|
B|---------3---3-----3-----3-------------------|
G|---------4---4-----4-----4-------------------|
D|-x-5-----------5-5---------5-5-5-5-5-5-5-5---|
A|-x-5---5-------5-5-----5---5-5-5-5-5-5-5-5---|
E|-x-3-3-----3-----3---3-----3-3-3-3-3-3-3-3---|
Married  Married

e|-------------------------------------------|
B|-------------------------------------------|
G|-------------------------------------------|
D|-----------------------------8/10-10-8-7---|
A|-7-7-8-7-8/10-10-8-7-7-7-8-7---------------|
E|-0-----0-------------0-----0---------------|
What else could I be
All Apologies
What else could I write
I dont wanna fight

e|-------------------------------------------------|
B|-------------------------------------------------|
G|-------------------------------------------------|
D|-------------------------------------------------|
A|-7-7-8-7-8/10-10-8-7-7-7-8-7-7-8-7-8/10-10-8-7---|
E|-0-----0-------------0-----0-----0---------------|
What else could I say

e|-------------------------------------------|
B|-------------------------------------------|
G|-------------------------------------------|
D|-----------------------------8/10-10-8-7---|
A|-7-7-8-7-8/10-10-8-7-7-7-8-7---------------|
E|-0-----0-------------0-----0---------------|
All the words were grey
What else could I be

e|-------------------------------------------|
B|-------------------------------------------|
G|-----------------------------------x-x-x---|
D|-----------------------------8/10--5-5-x---|
A|-7-7-8-7-8/10-10-8-7-7-7-8-7-------3-3-x---|
E|-0-----0-------------0-----0-------3-3-----|
All apologies

e|--------------------|
B|--------------------|
G|--------------------| (every now and then playing the bottom
D|-3--3-3-3-3-3-3-3---|  strings of the full ver of the F chord)
A|-3--3-3-3-3-3-3-1---|
E|-1--1-1-1-1-1-1-1---|
In the sun
In the sun
I feel as one
In the sun
In the sun

e|-------3-------------------------------------------------------|
B|-------------------------3-------------------------------3-3---|
G|---4-4---4---------------4-------------------------------4-4---|
D|-5-5-------5---------5---5-------5-5-5-----5-----5---5-5---5---|
A|-5-----------5---5-5-5-5---5-5---5-5-5---5---------5-5-5-------|
E|-3-------------3-3-3-3---------3-3-3-3-3-----3-3-----3-3-------|
Married  Married  Married

e|-------------------|
B|-------------------|
G|-------------------|
D|-5-5-5-5-5-5-5-5---|
A|-5-5-5-5-5-5-5-5---|
E|-3-3-3-3-3-3-3-3---|
Yeah Yeah Yeah Yeah

e|--------------------------------------------------------------------------------|
B|--------------------------------------------------------------------------------|
G|---------------------------------------------------------------------9-9-7------|
D|-----------------------------8/10-10-8-7-----------------------------------10---|
A|-7-7-8-7-8/10-10-8-7-7-7-8-7-------------7-7-8-7-8/10-10-8-7-7-7-8-7------------|
E|-0-----0-------------0-----0-------------0-----0-------------0-----0------------|

e|-------------------------------------------|
B|-------------------------------------------|
G|-------------------------------------------|
D|-----------------------------8/10-10-8-7---|x10
A|-7-7-8-7-8/10-10-8-7-7-7-8-7---------------|
E|-0-----0-------------0-----0---------------|
all in all is all we are

e|-----------------------7---|
B|-----------------------7---|
G|---9-----------9-9-----8---|
D|---x-----------x-------9---|
A|-7---7---7---7-----7---9---|
E|-0-----0---0-0-------0-7---|

| /  slide up
| \  slide down
| x  Mute note
===============================================================================
this TAB probably isn’t too correct.i did it a few months ago and since then i havent 
it.so sorry if some of it is not right.
PLEASE RATE!
comments
print report bad tab
1 comment total.
0 reply
maciejstoklosa wrote on December 26 2015, 05:10 pm

It just doesn't sound right to my opinion. wd wd wd wd dw dw dw dw wd efw wefade efwf w wgth egerg

I want to post or [tab]
guest
You may want to rate the tab now too:
select rating
Please do not post tabs as comments. Select "correction" instead!