Oops, an error
Loading. Please wait.
We have an official All Apologies tab made by UG professional guitarists. Check out the tab »
×
by Nirvana
910 views 54 this week
1 commentread comment
1 2 3 4 5
x 6
add to favorites
×
Save as Personal and add changes to this tab that will be seen only by you. Learn more ›
×
You can save this tab as Personal to edit and correct it or add notes. All changes will be seen only by you. Learn more »
launch autoscroll
font size
0
reset
how to read this tab
guitar tuner
backing track
0:00
0:00
edit
Autoscroll
slow
fast
+/-
esc
set tempo
stop
His guitar is flat, but not tuned a half step down. Dont worry about it
The E string is flat, but not quite D

INTRO/ Verse
E   ---------------|---------------|----------------|---------1-1-------|
B   ---------------|---------------|----------------|--------------4-2--|
G   ---------------|--------6-6-4-3|----------------|-------------------|
D   3-3-4-3-6-6-4-3~|-3-4-3--------|3-3-4-3-6-6-4-3~|---3-4-3-----------|
A   ---------------|---------------|----------------|-------------------|
Eb  ---------------|---------------|----------------|-------------------|

Chorus
E   -------------------------------------|
B   -------------------------------------|
G   -------------------------------------|
D   -4-4-4-4-4-4-4-4-------------6~------|
A   -4-4-4-4-4-4-4-4-------------6~------|
Eb  -2-2-2-2-2-2-2-2-------------4~------|


Despite all the tabs, Kurt played this live on a TV interview for their unplugged album.

            
            
Suggest correction
Creating personal tab
Creating personal tab
You can edit any tab online and save it as your Personal.

You can edit, replace or remove any tab part or add personal notes – all changes will be seen only by you.

Personal tabs can be accessed anytime from any device, even offline.
Learn more »
comments
print report bad tab
1 comment total.
0 reply
The_Fez01 10 Oct 09, 2016 03:55 PM

This is pretty a pretty solid tab, although I don't think the "E" is flat.

If you want to play the demo version off of WTLO, play this, but one string down..

It would look like

e ---------------|-------------
B ---------------|-------------
G ---------------|------5-5-3-2
D 2-2-3-2-5-5-3-2|2-3-2--------
A ---------------|-------------
E ---------------|-------------

and so on.

guest
You may want to rate the tab now too:
select rating
Wanna post a correction for this tab? Suggest correction