Oops, an error
Loading. Please wait.

Aneurysm Live Tab

version 2
version 2

Whole song

3,819 views 9 this week
3 commentsread comments
1 2 3 4 5
excellent!
x 3
add to favorites
launch autoscroll
font size
0
reset
how to read this tab
guitar tuner
Tab Pro tools
  • play this tab
  • loop segment
  • change instrument
  • show fretboard
  • metronome
Autoscroll
slow
fast
+/-
esc
set tempo
stop
Contributor
Aneurysm (LIVE) - Nirvana

This is the live version of Aneurysm. It can be found on the album From The Muddy
Banks Of The Wishkah, which is a collection of memorable Nirvana
performances. However, on that version, Kurt does not scream before the outro, but
I put that there anyway. Please rate, post comments, and enjoy playing!

Nirvana:
Kurt Cobain (1967-1994): Lead Vocals & Guitar
Krist Novoselic: Bass Guitar
Dave Grohl: Drums & Back Vocals

Tuning: Standard


Intro:
Clean.

e|------------------|------------------|
B|------------------|------------------|
G|--------/5-5-5-5\-|-4-4-4-0-2---2-0--|
D|--4--4-0/5-5-5-5\-|-4-4-4-0-2---2-0--|
A|--4--4-0/3-3-3-3\-|-2-2-2-0-0---0-0--|
E|--2--2-0----------|------------------|

e|------------------|------------------|
B|------------------|------------------|
G|--------/5-5-5-5\-|-4-4-4-0-2-2-2-0--|
D|--4--4-0/5-5-5-5\-|-4-4-4-0-2-2-2-0--|
A|--4--4-0/3-3-3-3\-|-2-2-2-0-0-0-0-0--|
E|--2--2-0----------|------------------|


First Ascending Riff:
Distortion on.

e|-----------------|-----------------|-----------------|-----------------|
B|-----------------|-----------------|-----------------|-----------------|
G|-3-3-3-3-3-3-3-3-|-3-3-3-3-3-3-3-3-|-3/4-4-4-4-4-4-4-|-4-4-4-4-4-4-4-4-|
D|-----------------|-----------------|-----------------|-----------------|
A|-----------------|-----------------|-----------------|-----------------|
E|-----------------|-----------------|-----------------|-----------------|


e|-----------------|-----------------|-----------------|---------------------|
B|-----------------|-----------------|-----------------|---------------------|
G|-4/5-5-5-5-5-5-5-|-5-5-5-5-5-5-5/6-|-6-6-6-6-6-7-7-7-|-8-8-9-9-10-10-11/-0-|
D|-----------------|-----------------|-----------------|---------------------|
A|-----------------|-----------------|-----------------|---------------------|
E|-----------------|-----------------|-----------------|---------------------|


Main Chordal Riff:
Distortion on.

e|------------------|------------------|
B|------------------|------------------|
G|--------/5-5-5-5\-|-4-4-4-0-2-2-2-0--|
D|--4--4-0/5-5-5-5\-|-4-4-4-0-2-2-2-0--|
A|--4--4-0/3-3-3-3\-|-2-2-2-0-0-0-0-0--|
E|--2--2-0----------|------------------|

e|------------------|------------------|
B|------------------|------------------|
G|--------/5-5-5-5\-|-4-4-4-0-2-2-2-0--|
D|--4--4-0/5-5-5-5\-|-4-4-4-0-2-2-2-0--|
A|--4--4-0/3-3-3-3\-|-2-2-2-0-0-0-0-0--|
E|--2--2-0----------|------------------|

e|------------------|------------------|
B|------------------|------------------|
G|--------/5-5-5-5\-|-4-4-4-0-2-2-2-0--|
D|--4--4-0/5-5-5-5\-|-4-4-4-0-2-2-2-0--|
A|--4--4-0/3-3-3-3\-|-2-2-2-0-0-0-0-0--|
E|--2--2-0----------|------------------|

e|------------------|------------------|
B|------------------|------------------|
G|--------/5-5-5-5\-|-4-4-4-0-2-2-2-0--|
D|--4--4-0/5-5-5-5\-|-4-4-4-0-2-2-2-0--|
A|--4--4-0/3-3-3-3\-|-2-2-2-0-0-0-0-0--|
E|--2--2-0----------|------------------|

e|------------------|------------------|
B|------------------|------------------|
G|--------/5-5-5-5\-|-4-4-4-0-2-2-2-0--|
D|--4--4-0/5-5-5-5\-|-4-4-4-0-2-2-2-0--|
A|--4--4-0/3-3-3-3\-|-2-2-2-0-0-0-0-0--|
E|--2--2-0----------|------------------|

e|------------------|------------------|
B|------------------|------------------|
G|--------/5-5-5-5\-|-4-4-4-0-2-2-2-0--|
D|--4--4-0/5-5-5-5\-|-4-4-4-0-2-2-2-0--|
A|--4--4-0/3-3-3-3\-|-2-2-2-0-0-0-0-0--|
E|--2--2-0----------|------------------|

e|------------------|------------------|
B|------------------|------------------|
G|--------/5-5-5-5\-|-4-4-4-0-2-2-2-0--|
D|--4--4-0/5-5-5-5\-|-4-4-4-0-2-2-2-0--|
A|--4--4-0/3-3-3-3\-|-2-2-2-0-0-0-0-0--|
E|--2--2-0----------|------------------|

e|------------------|------------------|
B|------------------|------------------|
G|--------/5-5-5-5\-|-4-4-4-0-2-2-2-0--|
D|--4--4-0/5-5-5-5\-|-4-4-4-0-2-2-2-0--|
A|--4--4-0/3-3-3-3\-|-2-2-2-0-0-0-0-0--|
E|--2--2-0----------|------------------|


Second Ascending Riff:
Distortion on.

e|-----------------|-----------------|-----------------|-----------------|
B|-----------------|-----------------|-----------------|-----------------|
G|-3-3-3-3-3-3-3-3-|-3/4-4-4-4-4-4-4-|-4/5-5-5-5-5-5-5-|-5/6-6-6-6-6-6-6-|
D|-----------------|-----------------|-----------------|-----------------|
A|-----------------|-----------------|-----------------|-----------------|
E|-----------------|-----------------|-----------------|-----------------|

e|-----------------|-----------------|-----------------|--18-18-18-18-18-18-18^--|
B|-----------------|-----------------|-----------------|--17-17-17-17-17-17-17^--|
G|-6/7-7-7-7-7-7-7-|-7/8-8-8-8-8-8-8-|-8/9-9-9-9-9-9-9-|-/16-16-16-16-16-16-16^--|
D|-----------------|-----------------|-----------------|-------------------------|
A|-----------------|-----------------|-----------------|-------------------------|
E|-----------------|-----------------|-----------------|-------------------------|


Pre-Verse Riff:
Distortion on.

e|----------------|-----------------|-----------------|-----0---0-0-0---|
B|----------------|-----------------|-----------------|---0-0-0-0-0-0---|
G|----------------|-----------------|-----------------|---------------0-|
D|9-9-9-9-9-9-9-9-|-9-9-9-9-9-9-9-9-|-9-9-9-9-9-9-9-9-|-9-9-9-9-9-9-9-0-|
A|9-9-9-9-9-9-9-9-|-9-9-9-9-9-9-9-9-|-9-9-9-9-9-9-9-9-|-9-9-9-9-9-9-9-0-|
E|7-7-7-7-7-7-7-7-|-7-7-7-7-7-7-7-7-|-7-7-7-7-7-7-7-7-|-7-7-7-7-7-7-7-0-|
PM........................................................

e|---------------|-----------------|
B|---------------|-----------------|
G|-7--7--7-7-7-7-|-7-7-7-7-7-7-7-0-|
D|-7--7--7-7-7-7-|-7-7-7-7-7-7-7-0-|
A|-5--5--5-5-5-5-|-5-5-5-5-5-5-5-0-|
E|---------------|-----------------|

e|----------------|-----------------|-----------------|-----0---0-0-0---|
B|----------------|-----------------|-----------------|---0-0-0-0-0-0---|
G|----------------|-----------------|-----------------|---------------0-|
D|9-9-9-9-9-9-9-9-|-9-9-9-9-9-9-9-9-|-9-9-9-9-9-9-9-9-|-9-9-9-9-9-9-9-0-|
A|9-9-9-9-9-9-9-9-|-9-9-9-9-9-9-9-9-|-9-9-9-9-9-9-9-9-|-9-9-9-9-9-9-9-0-|
E|7-7-7-7-7-7-7-7-|-7-7-7-7-7-7-7-7-|-7-7-7-7-7-7-7-7-|-7-7-7-7-7-7-7-0-|
PM........................................................

e|---------------|-----------------|
B|---------------|-----------------|
G|-7--7--7-7-7-7-|-7-7-7-7-7-7-7-0-|
D|-7--7--7-7-7-7-|-7-7-7-7-7-7-7-0-|
A|-5--5--5-5-5-5-|-5-5-5-5-5-5-5-0-|
E|---------------|-----------------|


Verse 1:
Distortion on.

e|----------------|-------------0-0--|---------------|-----------------|
B|----------------|-------------0-0--|---------------|-----------------|
G|----------------|------------------|-7--7--7-7-7-7-|-7-7-7-7-7-7-7-0-|
D|9-9-9-9-9-9-9-9-|-9-9-9-9-9-9-9-9\-|-7--7--7-7-7-7-|-7-7-7-7-7-7-7-0-|
A|9-9-9-9-9-9-9-9-|-9-9-9-9-9-9-9-9\-|-5--5--5-5-5-5-|-5-5-5-5-5-5-5-0-|
E|7-7-7-7-7-7-7-7-|-7-7-7-7-7-7-7-7\-|---------------|-----------------|
PM..............................
          Come on over, and do the twist.              Ah, ah.....

e|----------------|-------------0-0--|---------------|-----------------|
B|----------------|-------------0-0--|---------------|-----------------|
G|----------------|------------------|-7--7--7-7-7-7-|-7-7-7-7-7-7-7-0-|
D|9-9-9-9-9-9-9-9-|-9-9-9-9-9-9-9-9\-|-7--7--7-7-7-7-|-7-7-7-7-7-7-7-0-|
A|9-9-9-9-9-9-9-9-|-9-9-9-9-9-9-9-9\-|-5--5--5-5-5-5-|-5-5-5-5-5-5-5-0-|
E|7-7-7-7-7-7-7-7-|-7-7-7-7-7-7-7-7\-|---------------|-----------------|
PM..............................
          Over do it, and have a fit.                  Ah, ah.....

e|----------------|-------------0-0--|---------------|-----------------|
B|----------------|-------------0-0--|---------------|-----------------|
G|----------------|------------------|-7--7--7-7-7-7-|-7-7-7-7-7-7-7-0-|
D|9-9-9-9-9-9-9-9-|-9-9-9-9-9-9-9-9\-|-7--7--7-7-7-7-|-7-7-7-7-7-7-7-0-|
A|9-9-9-9-9-9-9-9-|-9-9-9-9-9-9-9-9\-|-5--5--5-5-5-5-|-5-5-5-5-5-5-5-0-|
E|7-7-7-7-7-7-7-7-|-7-7-7-7-7-7-7-7\-|---------------|-----------------|
PM..............................
          Love you so much, it makes me sick.          Ah, ah.....

e|----------------|-------------0-0--|---------------|-----------------|
B|----------------|-------------0-0--|---------------|-----------------|
G|----------------|------------------|-7--7--7-7-7-7-|-7-7-7-7-7-7-7-0-|
D|9-9-9-9-9-9-9-9-|-9-9-9-9-9-9-9-9\-|-7--7--7-7-7-7-|-7-7-7-7-7-7-7-0-|
A|9-9-9-9-9-9-9-9-|-9-9-9-9-9-9-9-9\-|-5--5--5-5-5-5-|-5-5-5-5-5-5-5-0-|
E|7-7-7-7-7-7-7-7-|-7-7-7-7-7-7-7-7\-|---------------|-----------------|
PM..............................
          Come on over, and do the twist.              Ah, ah.....


Chorus:
Distortion on.

e|----------------|-----------------|
B|----------------|-----------------|
G|----------------|-----------------|
D|-4-4-6-7--7-7-8-|-9-9-9-8-7-7-7-0-|
A|-4-4-6-7--7-7-8-|-9-9-9-8-7-7-7-0-|
E|-2-2-4-5--5-5-6-|-7-7-7-6-5-5-5-0-|
                   Beat me outta me!

e|----------------|-----------------|
B|----------------|-----------------|
G|----------------|-----------------|
D|-4-4-6-7--7-7-8-|-9-9-9-8-7-7-7-0-|
A|-4-4-6-7--7-7-8-|-9-9-9-8-7-7-7-0-|
E|-2-2-4-5--5-5-6-|-7-7-7-6-5-5-5-0-|
                   Beat me outta me.

e|----------------|-----------------|
B|----------------|-----------------|
G|----------------|-----------------|
D|-4-4-6-7--7-7-8-|-9-9-9-8-7-7-7-0-|
A|-4-4-6-7--7-7-8-|-9-9-9-8-7-7-7-0-|
E|-2-2-4-5--5-5-6-|-7-7-7-6-5-5-5-0-|
                   Beat me outta me!

e|----------------|-----------------|
B|----------------|-----------------|
G|----------------|-----------------|
D|-4-4-6-7--7-7-8-|-9-9-9-8-7-7-7-0-|
A|-4-4-6-7--7-7-8-|-9-9-9-8-7-7-7-0-|
E|-2-2-4-5--5-5-6-|-7-7-7-6-5-5-5-0-|
                   Beat me outta me.

e|----------------|-----------------|
B|----------------|-----------------|
G|----------------|-----------------|
D|-4-4-6-7--7-7-8-|-9-9-9-8-7-7-7-0-|
A|-4-4-6-7--7-7-8-|-9-9-9-8-7-7-7-0-|
E|-2-2-4-5--5-5-6-|-7-7-7-6-5-5-5-0-|
                   Beat me outta me!

e|----------------|-----------------|
B|----------------|-----------------|
G|----------------|-----------------|
D|-4-4-6-7--7-7-8-|-9-9-9-8-7-7-7-0-|
A|-4-4-6-7--7-7-8-|-9-9-9-8-7-7-7-0-|
E|-2-2-4-5--5-5-6-|-7-7-7-6-5-5-5-0-|
                   Beat me outta me.

e|----------------|-----------------|
B|----------------|-----------------|
G|----------------|-----------------|
D|-4-4-6-7--7-7-8-|-9-9-9-8-7-7-7-0-|
A|-4-4-6-7--7-7-8-|-9-9-9-8-7-7-7-0-|
E|-2-2-4-5--5-5-6-|-7-7-7-6-5-5-5-0-|
                   Beat me outta me!

e|----------------|-----------------|
B|----------------|-----------------|
G|----------------|-----------------|
D|-4-4-6-7--7-7-8-|-9-9-9-8-7-7-7-0-|
A|-4-4-6-7--7-7-8-|-9-9-9-8-7-7-7-0-|
E|-2-2-4-5--5-5-6-|-7-7-7-6-5-5-5-0-|
                   Beat me outta me, ah.

Verse 2:

e|----------------|-------------0-0--|---------------|-----------------|
B|----------------|-------------0-0--|---------------|-----------------|
G|----------------|------------------|-7--7--7-7-7-7-|-7-7-7-7-7-7-7-0-|
D|9-9-9-9-9-9-9-9-|-9-9-9-9-9-9-9-9\-|-7--7--7-7-7-7-|-7-7-7-7-7-7-7-0-|
A|9-9-9-9-9-9-9-9-|-9-9-9-9-9-9-9-9\-|-5--5--5-5-5-5-|-5-5-5-5-5-5-5-0-|
E|7-7-7-7-7-7-7-7-|-7-7-7-7-7-7-7-7\-|---------------|-----------------|
PM..............................
          Come on over, and do the twist.              Ah, ah.....

e|----------------|-------------0-0--|---------------|-----------------|
B|----------------|-------------0-0--|---------------|-----------------|
G|----------------|------------------|-7--7--7-7-7-7-|-7-7-7-7-7-7-7-0-|
D|9-9-9-9-9-9-9-9-|-9-9-9-9-9-9-9-9\-|-7--7--7-7-7-7-|-7-7-7-7-7-7-7-0-|
A|9-9-9-9-9-9-9-9-|-9-9-9-9-9-9-9-9\-|-5--5--5-5-5-5-|-5-5-5-5-5-5-5-0-|
E|7-7-7-7-7-7-7-7-|-7-7-7-7-7-7-7-7\-|---------------|-----------------|
PM..............................
          Over do it, and have a fit.                  Ah, ah.....

e|----------------|-------------0-0--|---------------|-----------------|
B|----------------|-------------0-0--|---------------|-----------------|
G|----------------|------------------|-7--7--7-7-7-7-|-7-7-7-7-7-7-7-0-|
D|9-9-9-9-9-9-9-9-|-9-9-9-9-9-9-9-9\-|-7--7--7-7-7-7-|-7-7-7-7-7-7-7-0-|
A|9-9-9-9-9-9-9-9-|-9-9-9-9-9-9-9-9\-|-5--5--5-5-5-5-|-5-5-5-5-5-5-5-0-|
E|7-7-7-7-7-7-7-7-|-7-7-7-7-7-7-7-7\-|---------------|-----------------|
PM..............................
          Love you so much, it makes me sick.          Ah, ah.....

e|----------------|-------------0-0--|---------------|-----------------|
B|----------------|-------------0-0--|---------------|-----------------|
G|----------------|------------------|-7--7--7-7-7-7-|-7-7-7-7-7-7-7-0-|
D|9-9-9-9-9-9-9-9-|-9-9-9-9-9-9-9-9\-|-7--7--7-7-7-7-|-7-7-7-7-7-7-7-0-|
A|9-9-9-9-9-9-9-9-|-9-9-9-9-9-9-9-9\-|-5--5--5-5-5-5-|-5-5-5-5-5-5-5-0-|
E|7-7-7-7-7-7-7-7-|-7-7-7-7-7-7-7-7\-|---------------|-----------------|
PM..............................
          Come on over, and shoot the shit.            Ah, ah.....


Chorus:
Distortion on.

e|----------------|-----------------|
B|----------------|-----------------|
G|----------------|-----------------|
D|-4-4-6-7--7-7-8-|-9-9-9-8-7-7-7-0-|
A|-4-4-6-7--7-7-8-|-9-9-9-8-7-7-7-0-|
E|-2-2-4-5--5-5-6-|-7-7-7-6-5-5-5-0-|
                   Beat me outta me!

e|----------------|-----------------|
B|----------------|-----------------|
G|----------------|-----------------|
D|-4-4-6-7--7-7-8-|-9-9-9-8-7-7-7-0-|
A|-4-4-6-7--7-7-8-|-9-9-9-8-7-7-7-0-|
E|-2-2-4-5--5-5-6-|-7-7-7-6-5-5-5-0-|
                   Beat me outta me.

e|----------------|-----------------|
B|----------------|-----------------|
G|----------------|-----------------|
D|-4-4-6-7--7-7-8-|-9-9-9-8-7-7-7-0-|
A|-4-4-6-7--7-7-8-|-9-9-9-8-7-7-7-0-|
E|-2-2-4-5--5-5-6-|-7-7-7-6-5-5-5-0-|
                   Beat me outta me!

e|----------------|-----------------|
B|----------------|-----------------|
G|----------------|-----------------|
D|-4-4-6-7--7-7-8-|-9-9-9-8-7-7-7-0-|
A|-4-4-6-7--7-7-8-|-9-9-9-8-7-7-7-0-|
E|-2-2-4-5--5-5-6-|-7-7-7-6-5-5-5-0-|
                   Beat me outta me.

e|----------------|-----------------|
B|----------------|-----------------|
G|----------------|-----------------|
D|-4-4-6-7--7-7-8-|-9-9-9-8-7-7-7-0-|
A|-4-4-6-7--7-7-8-|-9-9-9-8-7-7-7-0-|
E|-2-2-4-5--5-5-6-|-7-7-7-6-5-5-5-0-|
                   Beat me outta me!

e|----------------|-----------------|
B|----------------|-----------------|
G|----------------|-----------------|
D|-4-4-6-7--7-7-8-|-9-9-9-8-7-7-7-0-|
A|-4-4-6-7--7-7-8-|-9-9-9-8-7-7-7-0-|
E|-2-2-4-5--5-5-6-|-7-7-7-6-5-5-5-0-|
                   Beat me outta me.

e|----------------|-----------------|
B|----------------|-----------------|
G|----------------|-----------------|
D|-4-4-6-7--7-7-8-|-9-9-9-8-7-7-7-0-|
A|-4-4-6-7--7-7-8-|-9-9-9-8-7-7-7-0-|
E|-2-2-4-5--5-5-6-|-7-7-7-6-5-5-5-0-|
                   Beat me outta me!

e|----------------|-----------------|
B|----------------|-----------------|
G|----------------|-----------------|
D|-4-4-6-7--7-7-8-|-9-9-9-8-7-7-7-0-|
A|-4-4-6-7--7-7-8-|-9-9-9-8-7-7-7-0-|
E|-2-2-4-5--5-5-6-|-7-7-7-6-5-5-5-0-|
                   Beat me outta me.....


Third Ascending Riff:
Distortion on.

e|-----------------|-----------------|-----------------|-----------------|
B|-----------------|-----------------|-----------------|-----------------|
G|-3-3-3-3-3-3-3-3-|-3/4-4-4-4-4-4-4-|-4/5-5-5-5-5-5-5-|-5/6-6-6-6-6-6-6-|
D|-----------------|-----------------|-----------------|-----------------|
A|-----------------|-----------------|-----------------|-----------------|
E|-----------------|-----------------|-----------------|-----------------|


e|----------------|-----------------|-----------------|-------------------------|
B|----------------|-----------------|-----------------|-------------------------|
G|6/7-7-7-7-7-7-7-|-7/8-8-8-8-8-8-8-I-8/9-9-9-9-9-9-9-|-9/10-10-10-10-10-10-10--|
D|----------------|-----------------|-----------------|-------------------------|
A|----------------|-----------------|-----------------|-------------------------|
E|----------------|-----------------|-----------------|-------------------------|

e|-----------------------|------------------------|------------------------|/18-18-18-18-18-18-18|
B|-----------------------|------------------------|------------------------|/17-17-17-17-17-17-17|
G|10/11-11-11-11-11-11-11|-11/12-12-12-12-12-12-12|-12/13-13-13-13-13-13-13|/16-16-16-16-16-16-16|
D|-----------------------|------------------------|------------------------|---------------------|
A|-----------------------|------------------------|------------------------|---------------------|
E|-----------------------|------------------------|------------------------|---------------------|

e|------------------|------------------|
B|------------------|------------------|
G|--------/5-5-5-5\-|-4-4-4-0-2-2-2-0--|
D|--4--4-0/5-5-5-5\-|-4-4-4-0-2-2-2-0--|
A|--4--4-0/3-3-3-3\-|-2-2-2-0-0-0-0-0--|
E|--2--2-0----------|------------------|
(Aaaaaaaaaaaaaaaaaaaaaaaaaaaaaaaaaaaaaa

e|------------------|------------------|
B|------------------|------------------|
G|--------/5-5-5-5\-|-4-4-4-0-2-2-2-0--|
D|--4--4-0/5-5-5-5\-|-4-4-4-0-2-2-2-0--|
A|--4--4-0/3-3-3-3\-|-2-2-2-0-0-0-0-0--|
E|--2--2-0----------|------------------|
aaaaaaaaaaaaaaaahhhhhhhhhhhhhh.....)


Outro:
Distortion on.

e|------------------|------------------|
B|------------------|------------------|
G|--------/5-5-5-5\-|-4-4-4-0-2-2-2-0--|
D|--4--4-0/5-5-5-5\-|-4-4-4-0-2-2-2-0--|
A|--4--4-0/3-3-3-3\-|-2-2-2-0-0-0-0-0--|
E|--2--2-0----------|------------------|
         She keeps it pumpin' straight to my

e|------------------|------------------|
B|------------------|------------------|
G|--------/5-5-5-5\-|-4-4-4-0-2-2-2-0--|
D|--4--4-0/5-5-5-5\-|-4-4-4-0-2-2-2-0--|
A|--4--4-0/3-3-3-3\-|-2-2-2-0-0-0-0-0--|
E|--2--2-0----------|------------------|
  heart. She keeps it pumpin' stright to my

e|------------------|------------------|
B|------------------|------------------|
G|--------/5-5-5-5\-|-4-4-4-0-2-2-2-0--|
D|--4--4-0/5-5-5-5\-|-4-4-4-0-2-2-2-0--|
A|--4--4-0/3-3-3-3\-|-2-2-2-0-0-0-0-0--|
E|--2--2-0----------|------------------|
  heart. She keeps it pumpin' stright to my

e|------------------|------------------|
B|------------------|------------------|
G|--------/5-5-5-5\-|-4-4-4-0-2-2-2-0--|
D|--4--4-0/5-5-5-5\-|-4-4-4-0-2-2-2-0--|
A|--4--4-0/3-3-3-3\-|-2-2-2-0-0-0-0-0--|
E|--2--2-0----------|------------------|
  heart. She keeps it pumpin' stright to my

e|------------------|------------------|
B|------------------|------------------|
G|--------/5-5-5-5\-|-4-4-4-0-2-2-2-0--|
D|--4--4-0/5-5-5-5\-|-4-4-4-0-2-2-2-0--|
A|--4--4-0/3-3-3-3\-|-2-2-2-0-0-0-0-0--|
E|--2--2-0----------|------------------|
  heart. She keeps it pumpin' stright to my

e|------------------|------------------|
B|------------------|------------------|
G|--------/5-5-5-5\-|-4-4-4-0-2-2-2-0--|
D|--4--4-0/5-5-5-5\-|-4-4-4-0-2-2-2-0--|
A|--4--4-0/3-3-3-3\-|-2-2-2-0-0-0-0-0--|
E|--2--2-0----------|------------------|
  heart. She keeps it pumpin' stright to my

e|------------------|------------------|
B|------------------|------------------|
G|--------/5-5-5-5\-|-4-4-4-0-2-2-2-0--|
D|--4--4-0/5-5-5-5\-|-4-4-4-0-2-2-2-0--|
A|--4--4-0/3-3-3-3\-|-2-2-2-0-0-0-0-0--|
E|--2--2-0----------|------------------|
  heart. She keeps it pumpin' stright to my

e|------------------|------------------|
B|------------------|------------------|
G|--------/5-5-5-5\-|-4-4-4-0-2-2-2-0--|
D|--4--4-0/5-5-5-5\-|-4-4-4-0-2-2-2-0--|
A|--4--4-0/3-3-3-3\-|-2-2-2-0-0-0-0-0--|
E|--2--2-0----------|------------------|
  heart. She keeps it pumpin' stright to my


Final Ascending Riff:
Distortion on.

e|-----------------|-----------------|-----------------|-----------------|
B|-----------------|-----------------|-----------------|-----------------|
G|-3-3-3-3-3-3-3-3-|-3/4-4-4-4-4-4-4-|-4/5-5-5-5-5-5-5-|-5/6-6-6-6-6-6-6-|
D|-----------------|-----------------|-----------------|-----------------|
A|-----------------|-----------------|-----------------|-----------------|
E|-----------------|-----------------|-----------------|-----------------|
  heart.....

e|-----------------|-----------------|-----------------|-------------------------|
B|-----------------|-----------------|-----------------|-------------------------|
G|-6/7-7-7-7-7-7-7-|-7/8-8-8-8-8-8-8-|-8/9-9-9-9-9-9-9-|-/15-------\3~~~~~-------|
D|-----------------|-----------------|-----------------|-------------------------|
A|-----------------|-----------------|-----------------|-------------------------|
E|-----------------|-----------------|-----------------|-------------------------|
                                               Finish on an improvised high note.


and that's it! NIRVANA RULES! R.I.P. KURT COBAIN!
comments
We did not receive enough feedback on this tab! Please rate:
print report bad tab
1 2 3 4 5
3 comments total.
0 reply
Grungemaster29 wrote on May 29 2008, 08:45 am

great tab, you can watch this on youtube too..... it's one of my favorite nirvana songs, if not my favorite

0 reply
smiths-robbie wrote on August 2 2011, 03:54 pm

i recommend eb tuning

0 reply
Nirvanafan81 wrote on February 8 2012, 04:32 pm

for the outro the lyrics aren't "She keeps it pumpin' straight to my heart." they are "she is the perfect strain to my heart."But otherwise,GREAT TAB!

I want to post or [tab]
guest
You may want to rate the tab now too:
select rating
Please do not post tabs as comments. Select "correction" instead!