Oops, an error
Loading. Please wait.

Aneurysm Tab

version 1
version 1
by Nirvana
70,240 views 48 this week
17 commentsread comments
1 2 3 4 5
x 32
add to favorites
×
Save as Personal and add changes to this tab that will be seen only by you. Learn more ›
×
You can save this tab as Personal to edit and correct it or add notes. All changes will be seen only by you. Learn more »
save as personal
new!
launch autoscroll
font size
0
reset
how to read this tab
guitar tuner
backing track
0:00
0:00
Autoscroll
slow
fast
+/-
esc
set tempo
stop
[Intro]

e|------------------------------------------|
B|------------------------------------------|
G|--------5--4------------------------------|
D|---4----5--4----7-------------------------| Repeat 2 times
A|---4----3--2----7-------------------------|
E|---2------------5-------------------------|


now this part is like a few notes palm muted on the fret board i think its this:


e|---1----5--7---9--10----------------------|
B|---1----5--7---9--10----------------------|
G|---1----5--7---9--10----------------------|
D|---1----5--7---9--10----------------------|
A|---1----5--7---9--10----------------------|
E|---1----5--7---9--10----------------------|


e|------------------------------------------|
B|------------------------------------------|
G|--------5--4------------------------------|
D|---4----5--4----7-------------------------| Repeat 8 times
A|---4----3--2----7-------------------------|
E|---2------------5-------------------------|

[Verse]

e|------------------------------------------|
B|------------------------------------------|
G|--4--------------------------7------------|Repeat 4 times
D|--4--------------------------7------------|
A|--2--------------------------5------------|
E|------------------------------------------|

riff:

e|------------------------------------------|
B|------------------------------------------|
G|----------------3-4--3--------------------|               
D|-3----4---7-----3-4--3----7---------------|
A|-3----4---7-----1-2--1----7---------------|
E|-1----2---5---------------5---------------|


[Verse]

e|------------------------------------------|
B|------------------------------------------|
G|--4--------------------------7------------|Repeat 4 times
D|--4--------------------------7------------|
A|--2--------------------------5------------|
E|------------------------------------------|

back to the second bit of tab

play till end

e|------------------------------------------|
B|------------------------------------------|
G|--------5--4------------------------------|
D|---4----5--4----7-------------------------| 
A|---4----3--2----7-------------------------|
E|---2------------5-------------------------|


tabbed by sam yates
Suggest correction
comments
print report bad tab
17 comments total. Showing first comments.
0 reply
SpiceHanson 10 Sep 06, 2002 08:00 PM

ON THE INTRO AND CHOURS THE LAST THING THAT SHOULD BE PLAYED IS:
G|----2-----
D|----2-----
A|----------
E|----------
NOT:
D|-----7----
A|-----7----
E|-----5---- thanks

0 reply
NiRvanAcobain 10 Nov 21, 2003 07:00 PM

Lol its a mix of hanson and spice girls.

0 reply
NiRvanAcobain 10 Feb 27, 2004 07:00 PM

this tab sucks.

guest
Wanna post a correction for this tab? Suggest correction