Oops, an error
Loading. Please wait.

Aneurysm Tab

version 3
version 3
3,606 views 3 this week
no commentswrite comment
1 2 3 4 5
please rate
add to favorites
launch autoscroll
font size
0
reset
how to read this tab
guitar tuner
Autoscroll
slow
fast
+/-
esc
set tempo
stop
Help us to improve Ultimate-Guitar.com Take our survey!
×
Author
-------------------------------------------------------------------------------
                          aneurysm - nirvana
-------------------------------------------------------------------------------

Tabbed by:lelle_45
Email:hondacr89@hotmail.com

Tuning:standard

no distortion
be sure that u play on the d and g on the intro if not , it dosent sound right at all.
intro
e|---------------------------------------------------------------------------|
B|---------------------------------------------------------------------------|
G|--------5--5-5-5-5---4-4-4--2--2-2-----------------------------------------|
D|-----4--5--5-5-5-5---4-4-4--2--2-2-----------------------------------------|
A|-----4--3--3-3-3-3---2-2-2--0--0-0-----------------------------------------|
E|--2--2---------------------------------------------------------------------|

then a lot of destortion on the intro with an another guitar
e|---------------------------------------------------------------------------|
B|---------------------------------------------------------------------------|
G|---------------------------------------------------------------------------|
D|---7----7-7-77-7---/8--8-8-8-8----/9---9---9-9--9--/10---10--10--10-10-///-|
A|---------------------------------------------------------------------------|
E|---------------------------------------------------------------------------|
then intro but with heavy destortion.

come on hold me.................
e|---------------------------------------------------------------------------|
B|---------------------------------------------------------------------------|
G|-BASS--------------------------7--7--7-7-7-7--7----------------------------|
D|-------------------------------7--7--7-7-7-7--7----------------------------|
A|-------------------------------5--5--5-5-5-5--5----------------------------|
E|---------------------------------------------------------------------------|
then the last part
e|---------------------------------------------------------------------------|
B|---------------------------------------------------------------------------|
G|----------4--4--4-4-4--4--6--6--6--5-5-4-4---------------------------------|
D|--4--4-7--4--4--4-4-4--4--6--6--6--5-5-4-4---------------------------------|
A|--4--4-7--2--2--2-2-2--2--4--4--4--3-3-2-2---------------------------------|
E|--2--2-5-------------------------------------------------------------------|

e|---------------------------------------------------------------------------|
B|---------------------------------------------------------------------------|
G|---------------------------------------------------------------------------|
D|---------------------------------------------------------------------------|
A|---------------------------------------------------------------------------|
E|---------------------------------------------------------------------------|

e|---------------------------------------------------------------------------|
B|---------------------------------------------------------------------------|
G|---------------------------------------------------------------------------|
D|---------------------------------------------------------------------------|
A|---------------------------------------------------------------------------|
E|---------------------------------------------------------------------------|

e|---------------------------------------------------------------------------|
B|---------------------------------------------------------------------------|
G|---------------------------------------------------------------------------|
D|---------------------------------------------------------------------------|
A|---------------------------------------------------------------------------|
E|---------------------------------------------------------------------------|

e|---------------------------------------------------------------------------|
B|---------------------------------------------------------------------------|
G|---------------------------------------------------------------------------|
D|---------------------------------------------------------------------------|
A|---------------------------------------------------------------------------|
E|---------------------------------------------------------------------------|


| /  slide up
| \  slide down
| h  hammer-on
| p  pull-off
| ~  vibrato
| +  harmonic
| x  Mute note
Suggest correction
Give kudos to tab author, rate the tab!
1 2 3 4 5
comments
print report bad tab
guest
You may want to rate the tab now too:
select rating
Please do not post tabs as comments. Select "correction" instead!