Oops, an error
Loading. Please wait.
We have an official Aneurysm tab made by UG professional guitarists. Check out the tab »
×
by Nirvana
871 views 1 this week
3 commentsread comments
1 2 3 4 5
2 more votes to show rating
add to favorites
×
Save as Personal and add changes to this tab that will be seen only by you. Learn more ›
×
You can save this tab as Personal to edit and correct it or add notes. All changes will be seen only by you. Learn more »
launch autoscroll
font size
0
reset
guitar tuner
backing track
0:00
0:00
edit
Autoscroll
slow
fast
+/-
esc
set tempo
stop
Author
Difficulty
-------------------------------------------------------------------------------
                             Aneurysm - Nirvana
-------------------------------------------------------------------------------
Tabbed by: Bradley Hewett
E-mail: Bradley_Hewett@hotmail.com

Tuning: Standard Tuning

A fair amount of tabs on this bass line were wrong,
i thought that i would make a better reference for learning this bass tab.
A pick is recommended as it brings more power out of the bass line,
and it makes the verse that bit easier, enjoy!

    Intro (0:07) *also repeat at (3:14)
G|---------------------------------------------------------------------------|
D|---------------------------------------------------------------------------|
A|-----------3-3-3-3--2-2-2-2--0-0-0-0---------------------------------------|
E|--2-2-2-2------------------------------------------------------------------|
    
   (0:20) 
G|---------------------------------------------------------------------------|
D|---------------------------------------------------------------------------|
A|-----------3-3-3-0--2-2-2-0--0-0-0-----------------------------------------|
E|--2--2-2-0--------------------------0---------------------------------------|
   
   (0:45)
G|---------------------------------------------------------------------------|
D|---------------------------------------------------------------------------|
A|---------------------------------------------------------------------------|
E|--2--------2--------2--------2...------------------------------------------|

   Verse (0:59) Listen to song to get correct timings
G|---------------------------------------------------------------------------|
D|---------------------------------------------------------------------------|
A|--2-2-2-2-2-2-2-2-2-2-2-2-2-2-2-2-2-2--/-5--5--5--5-5-5-5-5-5-5-5-5-5-5-5--|
E|---------------------------------------------------------------------------|
    
   1st Variation (When Kurt starts singing)
G|---------------------------------------------------------------------------|
D|------------------------------------------------------------3--------------|
A|--2-2-2-2-2-2-2-2-2-2-2-2-2-2-2-2-2-2--/-5--5--5--5-5--5-3-5-5-3-2-0-------|
E|---------------------------------------------------------------------------|
 
  2nd Variation (1:25)
G|---------------------------------------------------------------------------|
D|---------------------------------------------------------------------------|
A|--2-2-2-2-2-2-2-2-2-2-2-2-2-2-2-2-2-2--/-5--5--5--5-5--5-3-5-3-5-3-5-3-----|
E|---------------------------------------------------------------------------|

  Chorus (1:45)
G|---------------------------------------------------------------------------|
D|---------------------------------------------------------------------------|
A|---------------------------------------------------------------------------|
E|--2-2--4--5-5-5--6--7-7-7--6--5-5-5--0-------------------------------------|

   Outro (4:04)
G|---------------------------------------------------------------------------|
D|---------------------------------------------------------------------------|
A|---------------------------------------------------------------------------|
E|--2--------2--------2--------2...------------------------------------------|

Everything is as it is on the song to my knowledge
Listen to the song to learn all of the times for each segment and you should be fine
Rock on Lads!
| /  slide up
| \  slide down
| h  hammer-on
| p  pull-off
| ~  vibrato
| +  harmonic
| x  Mute note
===============================================================================

            
            
Suggest correction
Creating personal tab
Creating personal tab
You can edit any tab online and save it as your Personal.

You can edit, replace or remove any tab part or add personal notes – all changes will be seen only by you.

Personal tabs can be accessed anytime from any device, even offline.
Learn more »
Give kudos to tab author, rate the tab!
1 2 3 4 5
comments
print report bad tab
3 comments total.
0 reply
cbeykovsky 10 Nov 09, 2015 07:17 PM

+1 reply
cbeykovsky 10 Nov 09, 2015 07:18 PM

Isn't it standard EADG tuning?

0 reply
LukeRaybould 423 Feb 16, 2016 06:10 AM

There is a third variation of the verse which goes, I think...
G|------------------------------------------------------------------------|
D|------------------------------------------------------------------------|
A|--2-2-2-2-2-2-2-2-2-2-2-2-2-2-2-2-2-2--/-5--5--5---5---5-3-5-0----------|
E|-------------------------------------------------3---3------------------|

Pretty sure it is like this, if anyone else has a more accurate one or hears it differently then speak up.

guest
You may want to rate the tab now too:
select rating
Wanna post a correction for this tab? Suggest correction