Oops, an error
Loading. Please wait.

Anorexorcist Tab

version 1
version 1

Whole song

Interactive

5,226 views 15 this week
no commentswrite comment
1 2 3 4 5
accurate
x 3
add to favorites
launch autoscroll
font size
0
reset
how to read this tab
guitar tuner
Autoscroll
slow
fast
+/-
esc
set tempo
stop
Help us to improve Ultimate-Guitar.com Take our survey!
×
Author
-----------------------------------------------------------------------------
                            Anorexorcist - Nirvana
-----------------------------------------------------------------------------
Tabbed by: EdarotagV335
Email: EdarotagV335@yahoo.com

Tuning: Normal


| \  slide down
| +  harmonic
| |-|sectional P.M.
=============================================================================

Intro 1 - Clean Tone

e|--------------------------------------------------------------|
B|--------------------5-5---------------------------------------|
G|--------------------5-5--4------------------------------------|
D|------1---1---1-1---5-5--4-5-5-4------------------------------|
A|-----1---1---1-1---------2-5-5-4------------------------------|
E|-0-------------------------3-3-2--0-------(0)----------(0)----|
                            |-----|         Turn Distortion On
                              P.M.
Intro 2: Repeat 4 times
e|---------------------------|
B|---------------------------|
G|---------------------------|
D|-44-3-4\33-4\33-4\33-4-333-|
A|-44-3-4\33-4\33-4\33-4-333-|
E|-22-1-2\11-2\11-2\11-2-111-|
   |---------|
       P.M.

Verse: Repeat 4 times
e|---------------------------|
B|---------------------------|
G|---------------------------|
D|-44\3-4\33-4\33-4\33-4-333-|
A|-44\3-4\33-4\33-4\33-4-333-|
E|-22\1-2\11-2\11-2\11-2-111-|
  |---|
    P.M.

PreChorus: Vary between open frets and harmonics however many times necessary
e|------------------------------------------------|
B|--0+--------+--00--+0-------+-----+0--------00+-|
G|-------+-0-----+---+--+-0-------+0+---+-0-+-----|
D|-2----------------------------------------------|
A|-2----------------------------------------------|
E|-0----------------------------------------------|

Chorus: Repeat 5 times
e|----|------------------------------------------|
B|----|------------------------------------------|
G|----|-4--4--4--44-444-22-4-44-2-22-------------|
D|-66-|-4--4--4--44-444-22-4-44-0-22-5-3-2--2222-|
A|-66-|-2--2--2--22-222-00-2-22-0-00-5-3-2--2222-|
E|-44-|------------------------------3-1-0--0000-|


That's all, great song to kick off the box set with. If you have any questions or comments just email me.
Suggest correction
Give kudos to tab author, rate the tab!
1 2 3 4 5
comments
print report bad tab
guest
You may want to rate the tab now too:
select rating
Please do not post tabs as comments. Select "correction" instead!