Oops, an error
Loading. Please wait.

Beans Tab

version 1
version 1

Whole song

1,209 views 1 this week
3 commentsread comments
1 2 3 4 5
1 last vote to show rating
add to favorites
launch autoscroll
font size
0
reset
how to read this tab
guitar tuner
×
Best way to learn
"Beans"
Autoscroll
slow
fast
+/-
esc
set tempo
stop
E:------------------------------------------------------------
B:------------------------------------------------------------
G:1-1-----1-1-----1-1-----1-1-----1-1-----1-1-----1-1-----1-1-
D:----1-1-----1-1-----1-1-----1-1-----1-1-----1-1-----1-1-----
A:------------------------------------------------------------
E:------------------------------------------------------------

E:------------------------------------------------------------
B:------------------------------------------------------------
G:1-1-----1-1-----1-1-----1-1-----1-1-----1-1-----1-1-----1-1-
D:----1-1-----1-1-----1-1-----1-1-----1-1-----1-1-----1-1-----
A:------------------------------------------------------------
E:------------------------------------------------------------
THIS SONG WAS LEFT OF THE BLEACH LP AS SUB POP THOUGHT THEY WERE RETARDED
Suggest correction
Give kudos to tab author, rate the tab!
1 2 3 4 5
comments
print report bad tab
3 comments total.
-1 reply
Michaelpalkowsk 20 Mar 01, 2005 07:00 PM

the proper way is
E-------------------------------------
B-------------------------------------
G-------------------------------------
D-------------------------------------
A-5-5------5-5------5-5------5-5------
E------5-5------5-5------5-5------5-5-

But this version is still decent

+1 reply
madbass 641 Apr 10, 2006 05:24 PM

You are way off! Michaelpalkowsk is way off too. It's supposed to be this:

E|---------|
B|---------|
G|---------|
D|-1-1-----|
A|-----1-1-|
E|---------|

-1 reply
daver869 75 Jun 30, 2006 10:12 AM

^^^^^
thats right its 1,1 Funny ass song lol. The editing of the weird voice makes it more catchy in my opinion.

guest
You may want to rate the tab now too:
select rating
Wanna post a correction for this tab? Suggest correction