Oops, an error
Loading. Please wait.

Been A Son Tab

version 1
version 1

Whole song

Interactive

34,543 views 99 this week
5 commentsread comments
1 2 3 4 5
x 16
add to favorites
launch autoscroll
font size
0
reset
how to read this tab
guitar tuner
Autoscroll
slow
fast
+/-
esc
set tempo
stop
Help us to improve Ultimate-Guitar.com Take our survey!
×
Tuning
D A D G B E
Been A Son
Written by Kurt Cobain

[Verse]
                         ^-upstroke if you play this one...all others down
E|---0--0-----------0---(0)--0--------|
B|---3--3-----------3---(3)--3--------|
G|---2--2-----------2---(2)--2--------| repeat many times
D|---0--0-----------0---(0)--0--------|
A|---0--0---3-2-0---0---(0)--0---3-2-0|
D|---0--0-----------0---(0)--0--------|


[Chorus]

E|-------------------------|
B|-------------------------|
G|-------------------------|   Repeat
D|---5-5--3--X-2--2--------|
A|---5-5--3--X-2--2--3-2-0-|
D|---5-5--3--X-2--2--------|

[Solo]

There are many ways to play this solo...sometimes Kurt just played the
verse guitar part as the solo...but my version of the solo (quite
pathetic unless you're playing with some other people to help make more
noise!

E|----------------------------|
B|----------------------------|
G|--6-6--4-3-1/6--6-6--4-3-1--|
D|----------------------------|
A|----------------------------|
D|----------------------------|

repeat a couple times then

E|---------------------------------------------------------|
B|---------------------------------------------------------|
G|--/4-4--2--2-1--1-1-1-0-1-0--1/4--4--2--2-1--1-1-1-0-1-0-|
D|---------------------------------------------------------|
A|---------------------------------------------------------|
D|---------------------------------------------------------|

etc.



************************************

| (n)  Ghost note
| /    Slide up
| X    dead note

************************************
Suggest correction
comments
print report bad tab
5 comments total. Showing first comments.
+1 reply
Eloy montes 20 Sep 20, 2005 12:00 AM

so far this is the best been a son tab.....

0 reply
Misterduke 10 Apr 02, 2006 07:25 AM

Yeah i'll agree with you there

0 reply
E_squared 20 Jul 23, 2007 02:28 PM

It's really good. Same as the way I play it. It doesn't need to be in drop D tuning though, you can play it just as easily without.

guest
You may want to rate the tab now too:
select rating
Wanna post a correction for this tab? Suggest correction