Oops, an error
Loading. Please wait.

Blandest Tab

version 2
version 2

Whole song

Interactive

2,696 views 12 this week
1 commentread comment
1 2 3 4 5
1 last vote to show rating
add to favorites
launch autoscroll
font size
0
reset
how to read this tab
guitar tuner
×
Best way to learn
"Blandest"
Autoscroll
slow
fast
+/-
esc
set tempo
stop
nirvana blandest
tabbed by steven barker                                                                  
    v-slow vibrato
tune down half a step

intro/verse
e---------------------------------------------|
b---------------------------------------------|
g---5-4-5-2-----------------------------------|
d---5-4-5-2-----------------------------------|
a---3-2-3-0-----------------------------------|
E---------------------------------------------|

chorus
e------2------------------------------------------------2-------|
b------2------------------------------------------------2-------|
g------2------------------------------------------------2-------|
d--------------------------------------2----------------2-------|
a--------------2-3-4-3-2-0-2-3-4--4-3-2-0-----------------------|
E--2----------------------------------------------2-------------|

repeat a few times then the little bridge to the verse (or the chorus ending) is this

e-------------------------------------------------------|
b-------------------------------------------------------|
g-------------------------------------------------------|
d-------------------------------------------------------|
a---3v--0---3v--0---3v--0---3v--0-----------------------|
E-------------------------------------------------------|


solo
e-----------------------------------------------------|
b----2v-----------------------------------------------|
g-----------------------------------------------------|
d-----------------------------------------------------|x4
a-3v----3v---0----------------------------------------|
E-----------------------------------------------------|

repeat the chorus ending after the solo and then go back to the verse

outro

e---------------------------------------------------|
b---------------------------------------------------|
g--5--8--3--2---------------------------------------|
d--5--8--3--2---------------------------------------|
a--3--6--5--0---------------------------------------|
E---------------------------------------------------|
Suggest correction
Give kudos to tab author, rate the tab!
1 2 3 4 5
comments
print report bad tab
1 comment total.
0 reply
killed yr idols 70 Sep 23, 2004 08:00 PM

the solo goes...

d|----/7~~---7---------------|
a|-3-----------3-------------|
e|----------------5r----p(2)-|
as for the rest, i wont fix it

guest
You may want to rate the tab now too:
select rating
Wanna post a correction for this tab? Suggest correction