Oops, an error
Loading. Please wait.

Bleach Bass Tab

version 1
version 1

Album

7,842 views 15 this week
no commentswrite comment
1 2 3 4 5
please rate
add to favorites
launch autoscroll
font size
0
reset
guitar tuner
Autoscroll
slow
fast
+/-
esc
set tempo
stop
Help us to improve Ultimate-Guitar.com Take our survey!
×
NIRVANA
BLEACH
-----------------------------------
Symbols used in the tab book:
\     Slide Up To
/     Side Down To 
PM    Palm Mute
@@@   Feedback
*     Mute
-----------------------------------



*****BLEACH*****


BLEW

Intro:
G:--------------
D:--------------
A:--------------
E:--0-0-2\3-3-2-  
Verse:
G:--------------------------
D:--------------------------
A:--------------------------
E:-0-0-3-3-3\5-5-5-0-3-3-0--
Chorus:
G:--------------------------
D:--------------------------
A:--------------------------
E:-0-0--0-3-3--3\5-5-6\5/6-- 
Outro:
G:-------------|    |---------------|
D:-------------|    |---------------|
A:-------------|    |---------------|
E:-0-0-3\6-6-5-| x3 |-0-0-3\6--6--0-|



FLOYD THE BARBER

Verse:
G:-------------|
D:-------------|
A:-------------|
E:-1-1-0-0-0---|
Chorus:
G:------------------------|
D:------------------------|
A:-4-4--0-0--3-3----------|
E:---------------4-4--4-4-|



ABOUT A GIRL

Verse:
G:---------------|
D:---------------|
A:---------------|
E:-0-0-0-3-3-3-3-|
Chorus:
G:---------------------------|           |-----------------------------|
D:---------------------------|           |-----------------------------|
A:-4--4-0--------------------|           |---------------3--3-3--3-3-3-|
E:--------4--4-0-2-2-2-2-2-2-| x2, then: |-0--0-0-5--5-5---------------|

SCHOOL
Intro and Verse:
G:---------------------------------
D:---------------------------------
A:---------------------------------
E:-0--0-0-5--0-5-0--0-0-0-0-5------
Chorus:
G:----------------------------------
D:----------------------------------
A:-3--3-3-3--3-3-3------------------
E:-----------------0--0--0----------



LOVE BUZZ

Intro and Verse:
G:-------------|                            |--------------
D:-------------|                            |--------------
A:-3-1-3-3/7\3-| Every 4th time, play this: |-1--3-3--6--7- 
E:-------------|                            |--------------
Chorus:
G:--------------------------------------------------
D:---7-----------7-----------7-------------10\8\7---
A:-8---8-6-8-6-8---8-6-8-6-8---8-6-8-6-8-8----------
E:--------------------------------------------------



PAPER CUTS

Intro And Verse:
G:-----------------------|
D:-----------------------|
A:-----------------------|
E:--1-1-1-1-1-1-*-1-1-1--|  
   {-------PM----------}
Chorus:
G:-----------------------|---------------
D:-----------------------|---------------
A:-----------------------|---------------
E:-2-3-3-4-4-5-5-6-7\6-6-|-5\4-4--7\6-6--
Post-Chorus:
G:-----------------| 
D:-----------------|
A:-----------------| 
E:-2-2-2-2-2-2-2-2-|



NEGATIVE CREEP

(Tuning: Drop D)
This is the whole song, except the 'Daddy's little girl'
G:---------------------|
D:---------------------| 
A:---------------------|
D:-0-0-12\-0-0-0-0-12\-|
'Daddy's little girl' bit:
G:-------------------------|
D:-------------------------|
A:-5-5-3-3-3---------------|
D:-----------6-6\13-13-13--|



SCOFF

Intro and Verse:
G:---------------
D:---------------
A:---------------
E:-2-2-1-0-2-2-1- 
Chorus:
G:---------------------
D:---------------------
A:---------------------
E:-3--3--3-0-0-5--2---- 
                  'Heal a million...'


SWAP MEET

Intro And Verse:
G:---------------
D:---------------
A:-----3-----2-1--
E:-0-1---0-1-----
Chorus:
G:---------------------------|
D:---------------------------|
A:-0-0--0-0-0-3--3-3--3-3-3--|
E:---------------------------|

G:----------------|
D:----------------|
A:---3-2-1-0--1-2-|
E:-1--------0-----|
(repeat the first half of chorus)

End Of Chorus:
G:---------------------|
D:---------------------|
A:---------------------|
E:-2-2--1-1--0-0-0-0-0-|



MR MOUSTACHE 

Intro (main riff):
G:---------------------------------|
D:---------------------------------|
A:---2---------------1-------------|  
E:-3---3-2-1-0-1-2-3---3-2-1-0-1-2-|
Verse:
G:-------------|
D:-------------|
A:-------------|
E:-3-3-0-1-0-1-|
Chorus:
G:-----------
D:-----------
A:-0-0-3-3-3-
E:-----------

G:-----------------------------------------------------|
D:-----------------------------------------------------|
A:-0-0-0--0-0-0--0-0-0--0-0-0--3-3-3-3-6-6-6-6-6-6-6-6-|
E:-----------------------------------------------------|



SIFTING

Intro:
G:---------
D:---------
A:---------
E:-0-0-0-0-
 [---PM---]
Verse:
G:-----------------------
D:-----------------------
A:-------3-------2-1-0---
E:-0-0-0---0-0-0---------
Pre-Chorus:
G:----------|
D:----------|
A:-------5--|
E:-0-0-0----|
                 'Your Eyes...'
Chorus:
G:--------------------------
D:--------------------------
A:-5--5-5-5-5-0-------------
E:----------------5-5-5-3-0-
During Solo:
G:---------|
D:---------|
A:---------|
E:-0-0-0---|



BIG CHEESE

Intro:
G:-----|
D:-----|
A:-----|
E:-8-7-|
Verse:
G:----------------|
D:----------------|
A:----------------|
E:-8-8-7-----@@@--|
Chorus:
G:-------------------------------
D:-------------------------------
A:-------------------------------
E:--2--2-2--2-2-2-2--2-2--3-3----

Bridge:
G:--------------
D:--------------
A:-2-2-3-2-1-0--
E:--------------



DOWNER

G:-----------------|
D:-----------------|
A:-----------------|
E:-0-0-0-0-0-8-8-8-|

G:-----------
D:-----------
A:-----------
E:-1-2-3-2-1-
Interlude:
G:--------------------
D:----------0---1-----
A:--0---1-------------
E:--------------------
Suggest correction
What's this?
You can suggest a correction to this tab. Community and Mods will review your correction and vote to approve or reject it.
comments
We did not receive enough feedback on this tab! Please rate:
print report bad tab
1 2 3 4 5
guest
You may want to rate the tab now too:
select rating
Please do not post tabs as comments. Select "correction" instead!