Oops, an error
Loading. Please wait.

Blew Bass Tab

version 1
version 1

Whole song

Interactive

36,811 views 111 this week
13 commentsread comments
1 2 3 4 5
x 26
add to favorites
launch autoscroll
font size
0
reset
guitar tuner
Autoscroll
slow
fast
+/-
esc
set tempo
stop
Help us to improve Ultimate-Guitar.com Take our survey!
×
Nirvana -> Blew (Bleach)

[Intro] x6
G|------------------------------------------------------|
D|------------------------------------------------------|
A|------------------------------------------------------|
E|0-3-5-5h6-6-5-----------------------------------------|

"If you wouldn't mind............(8x)
G|------------------------------------------------------|
D|------------------------------------------------------|
A|------------------------------------------------------|
E|0-3-5-5h6-6-5-33-0-3h5-5------------------------------|

"Is it another............." (3x)
G|------------------------------------------------------|
D|------------------------------------------------------|
A|------------------------------------------------------|
E|3-5-55-3-0-3-5-5-3-6----------------------------------|

[Solo] x2
G|------------------------------------------------------|
D|------------------------------------------------------|
A|------------------------------------------------------|
E|00-3-5-5h6-6-5-33-0-3h5-5-3-0-3-5-5h6-6-5h6-5-3-0-00--|

G|-------------------------------------------------------------------------------------------------|
D|-------------------------------------------------------------------------------------------------|
A|------------3-0-3-555-3-------------3-0-3-5-55-3-------------3-0-3-555-3-------------------------|
E|00-3-5-5h6-6-----------5-0-3-5-5h6-6------------5-0-3-5-5h6-6-----------5-0-3-5-5h6-6-5h6-5-3-0--|



************************************

| h  Hammer-on

************************************
Suggest correction
comments
print report bad tab
13 comments total. Showing first comments.
0 reply
dougydtxranger 10 Oct 20, 2006 12:19 AM

pretty good tab
sounds like it might be in the wrong tuning, but otherwise its good.

-1 reply
Bass Cat 114 Feb 13, 2007 10:22 PM

yeah they tuned down to like, i think drop a or some shit. just use a five string lol :D

+1 reply
rrlabrie88 60 Mar 01, 2007 11:50 AM

The tune is a whole step down

guest
You may want to rate the tab now too:
select rating
Wanna post a correction for this tab? Suggest correction