Oops, an error
Loading. Please wait.

Blew Tab

version 1
version 1

Whole song

Interactive

51,910 views 30 this week
6 commentsread comments
1 2 3 4 5
x 17
add to favorites
launch autoscroll
font size
0
reset
how to read this tab
guitar tuner
Autoscroll
slow
fast
+/-
esc
set tempo
stop
Help us to improve Ultimate-Guitar.com Take our survey!
×
Tuning
C F A# D# G C
Artist - Nirvana
Song - Blew
Album - Bleach
Tabbed by an17nin17

Tuning - low to high - C, F, Bb, Eb, G, C

a quick note to start off.  This song is NOT is drop D tuning however much
Kurt Cobain used it.  It's not in D, A, D, G, B, F either, it's in low C
(the same tuning as Something In The Way)

Heres the complete song with the solo, enjoy!

[Intro] (Guitar): 
  
C |-------------------------|
G |-------------------------|
D#|-------------------------|
A#|-2-2-5-7/8-8-7-5-5-2-7-7-| repeat twice
F |-2-2-5-7/8-8-7-5-5-2-7-7-|
C |-0-0-3-5/6-6-5-3-3-0-5-5-|

  [Verse]
C |------------------------------------------|
G |------------------------------------8-----|
D#|----------------^-------------------6-----|
A#|-----5-7-7-7-7-(9)-5-5/7-7-5~~~-7\5/7-7-7-|
F |---7--------------------------------------|
C |-0----------------------------------------|

C |------------------------------------------|
G |------------------------------------------|
D#|-------8----------------^-----------------|
A#|-----6-6-----5-7-7-7-7-(9)-5-5/7-7-5~~~---|
F |---7\5/7---7------------------------------|
C |-0-------0--------------------------------|

C |------------------------------------------|
G |------------------------------------------|
D#|---------6-----------6--------------------|
A#|---7\5-5-7-----7\5/7-7--------------------|
F |-7----------------------------------------|
C |-----------0-0----------------------------|

  [Chorus]
                             1,2,3|4...
C |---------------------------|---|-----------|
G |---------------------------|---|-----------|
D#|---------------------------|---|-----------|
A#|-5-7---7-7-5-5-7-7-5-5-7-7-|-8-|-9-9-9-9-9-| 
F |-5-7---7-7-5-5-7-7-5-5-7-7-|-8-|-9-9-9-9-9-|
C |-3-5---5-5-3-3-5-5-3-3-5-5-|-6-|-7-7-7-7-7-|
                             
  [Solo]
C |---------------------------------------|                                    
G |-10-10-10^-10-10-10-10-8-0-8-10-10-10^-|
D#|---------------------------------------|
A#|---------------------------------------|
F |---------------------------------------|
C |---------------------------------------|
  
C |-------------------------------------|     
G |-10~~~10-10-10-10-8-0-----------8-10-|
D#|----------------------8-10-8-10------|
A#|-------------------------------------|
F |-------------------------------------|
C |-------------------------------------|

C |-------------------------------------|               
G |-10/13-12~~-12^-12/15-15-15/17-17-15-|
D#|-------------------------------------|
A#|-------------------------------------|
F |-------------------------------------|
C |-------------------------------------|

C |-------------------------------------|                        
G |------18-18^-18-18-18-18^-18-18^-18--|
D#|-15-15----------------18^----18^-18^-|
A#|-------------------------------------|
F |-------------------------------------|
C |-------------------------------------|

C |-----------------------------------|
G |-18^-18-18--18^-18~~~~18~~~~~18-16-|
D#|-18^----18^-18^--------------------|
A#|-----------------------------------|
F |-----------------------------------|
C |-----------------------------------|

C |----------------------------------------|
G |-16\15-15\13-15-13^15^13^0-11/12-13-13~-|
D#|----------------------------------------|
A#|----------------------------------------|
F |----------------------------------------|
C |----------------------------------------|

C |-------------------------------------|
G |-11----------------------------------|
D#|----12\11-11-9-10-10-10-8-10-10-10-8-|
A#|-------------------------------------|
F |-------------------------------------|
C |-------------------------------------|

C |-----------------------------------------|
G |-----------------------------------------|
D#|-------------8-8-10-10-8------------8-10-|
A#|-10\8-0-8-10-------------10-8-10-10------|
F |-----------------------------------------|
C |-----------------------------------------|

C |-----------------------------------|
G |-------11-11-11-11-11-11-11-11-11\-|
D#|-10-10-----------------------------|
A#|-----------------------------------|
F |-----------------------------------|
C |-----------------------------------|

  [Outro]
C |---------------|-------------|---------------|
G |---------------|-------------|---------------|
D#|---------------|-------------|---------------|
A#|-2-5-7-7-8-8-2-|-2-5-7-7-7-7-|-2-5-7-7-8-8-2-|
F |-2-5-7-7-8-8-2-|-2-5-7-7-7-7-|-2-5-7-7-8-8-2-|
C |-0-3-5-5-6-6-0-|-0-3-5-5-5-5-|-0-3-5-5-6-6-0-|

C |-------------|---------------------|
G |-------------|---------------------|
D#|-------------|---------------------|
A#|-2-5-7-7-7-7-|-2-5-7-7-7-7-/-2---2-|
F |-2-5-7-7-7-7-|-2-5-7-7-7-7-/-2---2-|
C |-0-3-5-5-5-5-|-0-3-5-5-5-5-/-0---0-|

And thats that.  Thats the third song I've posted and it's the third song in the C tuning.  



************************************

| /    Slide up
| (n)  Ghost note
| \    Slide down
| ~    Vibrato 

************************************
Suggest correction
comments
print report bad tab
6 comments total. Showing first comments.
0 reply
feesk8ordie 1,082 Aug 21, 2004 12:00 AM

wat the?

-1 reply
DopeSickKid 10 Mar 10, 2007 08:50 PM

yur ****ing stupid thats wat the xD

0 reply
mister bass guy 10 Feb 24, 2008 04:21 PM

solos off

guest
You may want to rate the tab now too:
select rating
Wanna post a correction for this tab? Suggest correction