Oops, an error
Loading. Please wait.

Blew Tab

version 1
version 1

Whole song

Interactive

50,881 views 72 this week
6 commentsread comments
1 2 3 4 5
accurate
x 17
add to favorites
launch autoscroll
font size
0
reset
how to read this tab
guitar tuner
Autoscroll
slow
fast
+/-
esc
set tempo
stop
Help us to improve Ultimate-Guitar.com Take our survey!
×
Artist - Nirvana
Song - Blew
Album - Bleach
Tabbed by an17nin17

Tuning - low to high - C, F, Bb, Eb, G, C

a quick note to start off.  This song is NOT is drop D tuning however much
Kurt Cobain used it.  It's not in D, A, D, G, B, F either, it's in low C
(the same tuning as Something In The Way)

Heres the complete song with the solo, enjoy!

Intro (Guitar): 
  
|-------------------------|
|-------------------------|
|-------------------------|
|-2-2-5-7/8-8-7-5-5-2-7-7-| repeat twice
|-2-2-5-7/8-8-7-5-5-2-7-7-|
|-0-0-3-5/6-6-5-3-3-0-5-5-|

Verse:
|------------------------------------------|
|------------------------------------8-----|
|----------------^-------------------6-----|
|-----5-7-7-7-7-(9)-5-5/7-7-5~~~-7\5/7-7-7-|
|---7--------------------------------------|
|-0----------------------------------------|

|------------------------------------------|
|------------------------------------------|
|-------8----------------^-----------------|
|-----6-6-----5-7-7-7-7-(9)-5-5/7-7-5~~~---|
|---7\5/7---7------------------------------|
|-0-------0--------------------------------|

|------------------------------------------|
|------------------------------------------|
|---------6-----------6--------------------|
|---7\5-5-7-----7\5/7-7--------------------|
|-7----------------------------------------|
|-----------0-0----------------------------|

Chorus: 
                           1,2,3|4...
|---------------------------|---|-----------|
|---------------------------|---|-----------|
|---------------------------|---|-----------|
|-5-7---7-7-5-5-7-7-5-5-7-7-|-8-|-9-9-9-9-9-| 
|-5-7---7-7-5-5-7-7-5-5-7-7-|-8-|-9-9-9-9-9-|
|-3-5---5-5-3-3-5-5-3-3-5-5-|-6-|-7-7-7-7-7-|
                             
Solo:
|---------------------------------------|                                    
|-10-10-10^-10-10-10-10-8-0-8-10-10-10^-|
|---------------------------------------|
|---------------------------------------|
|---------------------------------------|
|---------------------------------------|
  
|-------------------------------------|     
|-10~~~10-10-10-10-8-0-----------8-10-|
|----------------------8-10-8-10------|
|-------------------------------------|
|-------------------------------------|
|-------------------------------------|

|-------------------------------------|               
|-10/13-12~~-12^-12/15-15-15/17-17-15-|
|-------------------------------------|
|-------------------------------------|
|-------------------------------------|
|-------------------------------------|

|-------------------------------------|                        
|------18-18^-18-18-18-18^-18-18^-18--|
|-15-15----------------18^----18^-18^-|
|-------------------------------------|
|-------------------------------------|
|-------------------------------------|

|-----------------------------------|
|-18^-18-18--18^-18~~~~18~~~~~18-16-|
|-18^----18^-18^--------------------|
|-----------------------------------|
|-----------------------------------|
|-----------------------------------|

|----------------------------------------|
|-16\15-15\13-15-13^15^13^0-11/12-13-13~-|
|----------------------------------------|
|----------------------------------------|
|----------------------------------------|
|----------------------------------------|

|-------------------------------------|
|-11----------------------------------|
|----12\11-11-9-10-10-10-8-10-10-10-8-|
|-------------------------------------|
|-------------------------------------|
|-------------------------------------|

|-----------------------------------------|
|-----------------------------------------|
|-------------8-8-10-10-8------------8-10-|
|-10\8-0-8-10-------------10-8-10-10------|
|-----------------------------------------|
|-----------------------------------------|

|-----------------------------------|
|-------11-11-11-11-11-11-11-11-11\-|
|-10-10-----------------------------|
|-----------------------------------|
|-----------------------------------|
|-----------------------------------|

Outro - 
|---------------|-------------|---------------|
|---------------|-------------|---------------|
|---------------|-------------|---------------|
|-2-5-7-7-8-8-2-|-2-5-7-7-7-7-|-2-5-7-7-8-8-2-|
|-2-5-7-7-8-8-2-|-2-5-7-7-7-7-|-2-5-7-7-8-8-2-|
|-0-3-5-5-6-6-0-|-0-3-5-5-5-5-|-0-3-5-5-6-6-0-|

|-------------|---------------------|
|-------------|---------------------|
|-------------|---------------------|
|-2-5-7-7-7-7-|-2-5-7-7-7-7-/-2---2-|
|-2-5-7-7-7-7-|-2-5-7-7-7-7-/-2---2-|
|-0-3-5-5-5-5-|-0-3-5-5-5-5-/-0---0-|

And thats that.  Thats the third song I've posted and it's the third song in the C tuning.  

Has anyone heard of the Melvins? and their first album OZMA? If you have I would
love to see some tabs from it as I am struggling to tab the songs out.  If you do
have any comments on this tab or want tabs contact me at TheFlameY2K@hotmail.com
Suggest correction
What's this?
You can suggest a correction to this tab. Community and Mods will review your correction and vote to approve or reject it.
comments
print report bad tab
6 comments total. Showing first comments.
0 reply
feesk8ordie 1,467 wrote on August 21 2004, 12:00 am

wat the?

-1 reply
DopeSickKid 30 wrote on March 10 2007, 08:50 pm

yur ****ing stupid thats wat the xD

0 reply
mister bass guy 71 wrote on February 24 2008, 04:21 pm

solos off

guest
You may want to rate the tab now too:
select rating
Please do not post tabs as comments. Select "correction" instead!