Oops, an error
Loading. Please wait.

Breed Tab

version 1
version 1
292,713 views 282 this week
30 commentsread comments
1 2 3 4 5
x 100
add to favorites
launch autoscroll
font size
0
reset
how to read this tab
guitar tuner
Autoscroll
slow
fast
+/-
esc
set tempo
stop
Help us to improve Ultimate-Guitar.com Take our survey!
×
-----------------------------------------------------------------------------
                             Breed - Nirvana - Nevermind
-----------------------------------------------------------------------------
Tabbed by:skatersic666
Email:totalrock2003@yahoo.com

Tuning: normal (E A D G B e)
Chords:
F#5 : 244xxx
E5  : 022xxx
A5  : 577xxx
A5* : x022xx
B5  : x244xx
D5  : x577xx


[Intro/Riff 1]

   F#5  E5  F#5  A5  E5
e|------------------------|
B|------------------------|
G|------------------------|   
D|-4-4---2---4---/7---2---|
A|-4-4---2---4---/7---2---|
E|-2-2---0---2---/5---0---|(x16)


[Verse 1]

 (rough timing; just pick the string fast)
  I dont care,i dont care,i dont care,i dont care,i dont care, care if im old
e|---------------------------------------------------------------------------|
B|---------------------------------------------------------------------------|
G|---------------------------------------------------------------------------|
D|11-11-11-11-11-11-11-11-11-11-11-11-11-11-11-11-11-11-11-11-11-11-11-11-9~-|
A|---------------------------------------------------------------------------|
E|---------------------------------------------------------------------------|

 I don't mind, I don't mind, I don't mind, I don't mind, I don't mind, mind
e|-------------------------------------------------------------------------------------------------------|
B|-------------------------------------------------------------------------------------------------------|
G|-------------------------------------------------------------------------------------------------------|
D|11-11-11-11-11-11-11-11-11-11-11-11-11-11-11-11-11-11-11-11-11-11-11-11-9~-----------------------------|
A|-------------------------------------------------------------------------------------------------------|
E|--------------------------------------------------------------------------|-| if I don't have a mind.--|

e|-------------------------------------------------------------------------------------------------------|
B|-------------------------------------------------------------------------------------------------------|
G|-------------------------------------------------------------------------------------------------------|
D|11-11-11-11-11-11--9~~~--------------------------------------------------------------------------------|
A|-------------------------------------------------------------------------------------------------------|
E|-------------------------------------------------------------------------------------------------------|

 Get away, get away, get away, get away, way, way from your house.
e|---------------------------------------------------------------------|
B|---------------------------------------------------------------------|
G|---------------------------------------------------------------------|
D|11-11-11-11-11-11-11-11-11-11-11-11-11-11-11-11-11-11-11--9~~~~------|
A|---------------------------------------------------------------------|
E|---------------------------------------------------------------------|


 Im afraid, im afraid, im afraid, im afraid, afraid ghost
e|---------------------------------------------------------------------|
B|---------------------------------------------------------------------|
G|---------------------------------------------------------------------|
D|11-11-11-11-11-11-11-11-11-11-11-11-11-11-11-11-11--9~---------------|
A|---------------------------------------------------------------------|
E|---------------------------------------------------------------------|


[Chorus 1]

  D5     A5*        C5     B5
  You to have,      you to me,
e|----------------|---------------|
B|----------------|---------------|
G|-7-7-7-2--------|-5-5-5--3------|
D|-7-7-7-2--------|-5-5-5--3------|
A|-5-5-5-0--------|-3-3-3--1------|
E|----------------|---------------|

   D5               A5*        C5               B5
   I don't mean to stare,      we don't have to breed,
e|---------------------------|---------------------------|
B|---------------------------|---------------------------|
G|-7---7---7---7---2-----2--2|-5---5---5---5----3----3-3-|
D|-7---7---7---7---2-----2--2|-5---5---5---5----3----3-3-|
A|-5---5---5---5---0-----0--0|-3---3---3---3----1----1-1-|
E|---------------------------|---------------------------|

   D5             A5*          C5             B5
   We can plant a house,       we can build a tree,
e|---------------------------|---------------------------|
B|---------------------------|---------------------------|
G|-7---7---7---7--2-----2--2-|-5---5---5---5--3-----3--3-|
D|-7---7---7---7--2-----2--2-|-5---5---5---5--3-----3--3-|
A|-5---5---5---5--0-----0--0-|-3---3---3---3--1-----1--1-|
E|---------------------------|---------------------------|

   D5             A5*          C5                B5
   I don't even   care,        we could have all three.
e|---------------------------|------------------------------|
B|---------------------------|------------------------------|
G|-7---7---7---7--2-----2--2-|-5---5---5---5-----3-----3--3-|
D|-7---7---7---7--2-----2--2-|-5---5---5---5-----3-----3--3-|
A|-5---5---5---5--0-----0--0-|-3---3---3---3-----1-----1--1-|
E|---------------------------|------------------------------|


[Bridge 1]

   F#5  E5  F#5  A5  E5    F#5  E5  F#5  A5  E5
                      She said,               she said,
e|-----------------------|------------------------|
B|-----------------------|------------------------|
G|-----------------------|------------------------|
D|-4-4---2---4---/7---2--|-4-4---2---4---/7---2---|
A|-4-4---2---4---/7---2--|-4-4---2---4---/7---2---|
E|-2-2---0---2---/5---0--|-2-2---0---2---/5---0---|

   F#5  E5  F#5  A5  E5    F#5  E5  F#5  A5  E5
                      She said,               she said,
e|-----------------------|------------------------|
B|-----------------------|------------------------|
G|-----------------------|------------------------|
D|-4-4---2---4---/7---2--|-4-4---2---4---/7---2---|
A|-4-4---2---4---/7---2--|-4-4---2---4---/7---2---|
E|-2-2---0---2---/5---0--|-2-2---0---2---/5---0---|

   F#5  E5  F#5  A5  E5    F#5  E5  F#5  A5  E5
                      She said,               she said,
e|-----------------------|------------------------|
B|-----------------------|------------------------|
G|-----------------------|------------------------|
D|-4-4---2---4---/7---2--|-4-4---2---4---/7---2---|
A|-4-4---2---4---/7---2--|-4-4---2---4---/7---2---|
E|-2-2---0---2---/5---0--|-2-2---0---2---/5---0---|

   F#5  E5  F#5  A5  E5    F#5  E5  F#5  A5  E5
                      She said,               she said
e|-----------------------|------------------------|
B|-----------------------|------------------------|
G|-----------------------|------------------------|
D|-4-4---2---4---/7---2--|-4-4---2---4---/7---2---|
A|-4-4---2---4---/7---2--|-4-4---2---4---/7---2---|
E|-2-2---0---2---/5---0--|-2-2---0---2---/5---0---|


[Verse 2]

  I dont care,i dont care,i dont care,i dont care,i dont care, care if im old
e|---------------------------------------------------------------------------|
B|---------------------------------------------------------------------------|
G|---------------------------------------------------------------------------|
D|11-11-11-11-11-11-11-11-11-11-11-11-11-11-11-11-11-11-11-11-11-11-11-11-9~-|
A|---------------------------------------------------------------------------|
E|---------------------------------------------------------------------------|

 I don't mind, I don't mind, I don't mind, I don't mind, I don't mind, mind
e|-------------------------------------------------------------------------------------------------------|
B|-------------------------------------------------------------------------------------------------------|
G|-------------------------------------------------------------------------------------------------------|
D|11-11-11-11-11-11-11-11-11-11-11-11-11-11-11-11-11-11-11-11-11-11-11-11-9~-----------------------------|
A|-------------------------------------------------------------------------------------------------------|
E|--------------------------------------------------------------------------|-| if I don't have a mind.--|

e|-------------------------------------------------------------------------------------------------------|
B|-------------------------------------------------------------------------------------------------------|
G|-------------------------------------------------------------------------------------------------------|
D|11-11-11-11-11-11--9~~~--------------------------------------------------------------------------------|
A|-------------------------------------------------------------------------------------------------------|
E|-------------------------------------------------------------------------------------------------------|

 Get away, get away, get away, get away, way, way from your house.
e|---------------------------------------------------------------------|
B|---------------------------------------------------------------------|
G|---------------------------------------------------------------------|
D|11-11-11-11-11-11-11-11-11-11-11-11-11-11-11-11-11-11-11--9~~~~------|
A|---------------------------------------------------------------------|
E|---------------------------------------------------------------------|


 Im afraid, im afraid, im afraid, im afraid, afraid ghost___________
e|---------------------------------------------------------------------|
B|---------------------------------------------------------------------|
G|---------------------------------------------------------------------|
D|11-11-11-11-11-11-11-11-11-11-11-11-11-11-11-11-11--9b~~-------------|
A|---------------------------------------------------------------------|
E|---------------------------------------------------------------------|


[Chorus 2]

  D5     A5*        C5     B5
  You to have,      you to me,
e|----------------|---------------|
B|----------------|---------------|
G|-7-7-7-2--------|-5-5-5--3------|
D|-7-7-7-2--------|-5-5-5--3------|
A|-5-5-5-0--------|-3-3-3--1------|
E|----------------|---------------|

   D5               A5*        C5               B5
   I don't mean to stare,      we don't have to breed,
e|---------------------------|---------------------------|
B|---------------------------|---------------------------|
G|-7---7---7---7---2-----2--2|-5---5---5---5----3----3-3-|
D|-7---7---7---7---2-----2--2|-5---5---5---5----3----3-3-|
A|-5---5---5---5---0-----0--0|-3---3---3---3----1----1-1-|
E|---------------------------|---------------------------|

   D5             A5*          C5             B5
   We can plant a house,       we can build a tree,
e|---------------------------|---------------------------|
B|---------------------------|---------------------------|
G|-7---7---7---7--2-----2--2-|-5---5---5---5--3-----3--3-|
D|-7---7---7---7--2-----2--2-|-5---5---5---5--3-----3--3-|
A|-5---5---5---5--0-----0--0-|-3---3---3---3--1-----1--1-|
E|---------------------------|---------------------------|

   D5             A5*          C5                B5
   I don't even   care,        we could have all three.
e|---------------------------|------------------------------|
B|---------------------------|------------------------------|
G|-7---7---7---7--2-----2--2-|-5---5---5---5-----3-----3--3-|
D|-7---7---7---7--2-----2--2-|-5---5---5---5-----3-----3--3-|
A|-5---5---5---5--0-----0--0-|-3---3---3---3-----1-----1--1-|
E|---------------------------|------------------------------|


[Bridge 2]

   F#5  E5  F#5  A5  E5    F#5  E5  F#5  A5  E5
                      She said,               she said,
e|-----------------------|------------------------|
B|-----------------------|------------------------|
G|-----------------------|------------------------|
D|-4-4---2---4---/7---2--|-4-4---2---4---/7---2---|
A|-4-4---2---4---/7---2--|-4-4---2---4---/7---2---|
E|-2-2---0---2---/5---0--|-2-2---0---2---/5---0---|

   F#5  E5  F#5  A5  E5    F#5  E5  F#5  A5  E5
                      She said,               she said,
e|-----------------------|------------------------|
B|-----------------------|------------------------|
G|-----------------------|------------------------|
D|-4-4---2---4---/7---2--|-4-4---2---4---/7---2---|
A|-4-4---2---4---/7---2--|-4-4---2---4---/7---2---|
E|-2-2---0---2---/5---0--|-2-2---0---2---/5---0---|

   F#5  E5  F#5  A5  E5    F#5  E5  F#5  A5  E5
                      She said,               she said,
e|-----------------------|------------------------|
B|-----------------------|------------------------|
G|-----------------------|------------------------|
D|-4-4---2---4---/7---2--|-4-4---2---4---/7---2---|
A|-4-4---2---4---/7---2--|-4-4---2---4---/7---2---|
E|-2-2---0---2---/5---0--|-2-2---0---2---/5---0---|

   F#5  E5  F#5  A5  E5    F#5  E5  F#5  A5  E5
                      She said,               she said
e|-----------------------|------------------------|
B|-----------------------|------------------------|
G|-----------------------|------------------------|
D|-4-4---2---4---/7---2--|-4-4---2---4---/7---2---|
A|-4-4---2---4---/7---2--|-4-4---2---4---/7---2---|
E|-2-2---0---2---/5---0--|-2-2---0---2---/5---0---|


[Solo]

(Strum real fast)
e|--0--0--0--0--0--0--0--0--0--0--0--0--0--0--0--0--0--0--0--0--0--0--0--0--|
B|-/11-11-11-11-11-11-11-11-11-11-11-11-11-11-11-11-11-11-11-11-11-11-11-11\|
G|-/12-12-12-12-12-12-12-12-12-12-12-12-12-12-12-12-12-12-12-12-12-12-12-12\|
D|-/13-13-13-13-13-13-13-13-13-13-13-13-13-13-13-13-13-13-13-13-13-13-13-13\|
A|--------------------------------------------------------------------------|
E|--------------------------------------------------------------------------|
 |                                                                          |
e|--0--0--0--0--0--0--0--0--0--0--0--0--0--0--0--0--0--0--0--0--0--0--0--0--|
B|-/13-13-13-13-13-13-13-13-13-13-13-13-13-13-13-13-13-13-13-13-13-13-13-13\|
G|-/14-14-14-14-14-14-14-14-14-14-14-14-14-14-14-14-14-14-14-14-14-14-14-14\|
D|-/15-15-15-15-15-15-15-15-15-15-15-15-15-15-15-15-15-15-15-15-15-15-15-15\|
A|--------------------------------------------------------------------------|
E|--------------------------------------------------------------------------|
 |                                                                          |
e|--0--0--0--0--0--0--0--0--0--0--0--0--0--0--0--0--0--0--0--0--0--0--0--0--|
B|-/16-16-16-16-16-16-16-16-16-16-16-16-16-16-16-16-16-16-16-16-16-16-16-16\|
G|-/17-17-17-17-17-17-17-17-17-17-17-17-17-17-17-17-17-17-17-17-17-17-17-17\|
D|-/18-18-18-18-18-18-18-18-18-18-18-18-18-18-18-18-18-18-18-18-18-18-18-18\|
A|--------------------------------------------------------------------------|
E|--------------------------------------------------------------------------|
 |                                   |
e|--0--0--0--0--0--0--0--0--0--0--0--|
B|-/17-17-17-17-17-17-17-17-17-17-17\|
G|-/18-18-18-18-18-18-18-18-18-18-18\|
D|-/19-19-19-19-19-19-19-19-19-19-19\|
A|-----------------------------------|
E|-----------------------------------|
 |                                   |
e|--0--0--0--0--0--0--0--0--0--0-----|
B|-/18-18-18-18-18-18-18-18-18-18\---|
G|-/19-19-19-19-19-19-19-19-19-19\---|
D|-/20-20-20-20-20-20-20-20-20-20\---|
A|-----------------------------------|
E|-----------------------------------|


[Chorus 3]

  D5     A5*        C5     B5
  You to have,      you to me,
e|----------------|---------------|
B|----------------|---------------|
G|-7-7-7-2--------|-5-5-5--3------|
D|-7-7-7-2--------|-5-5-5--3------|
A|-5-5-5-0--------|-3-3-3--1------|
E|----------------|---------------|

   D5               A5*        C5               B5
   I don't mean to stare,      we don't have to breed,
e|---------------------------|---------------------------|
B|---------------------------|---------------------------|
G|-7---7---7---7---2-----2--2|-5---5---5---5----3----3-3-|
D|-7---7---7---7---2-----2--2|-5---5---5---5----3----3-3-|
A|-5---5---5---5---0-----0--0|-3---3---3---3----1----1-1-|
E|---------------------------|---------------------------|

   D5             A5*          C5             B5
   We can plant a house,       we can build a tree,
e|---------------------------|---------------------------|
B|---------------------------|---------------------------|
G|-7---7---7---7--2-----2--2-|-5---5---5---5--3-----3--3-|
D|-7---7---7---7--2-----2--2-|-5---5---5---5--3-----3--3-|
A|-5---5---5---5--0-----0--0-|-3---3---3---3--1-----1--1-|
E|---------------------------|---------------------------|

   D5             A5*          C5                B5
   I don't even   care,        we could have all three.
e|---------------------------|------------------------------|
B|---------------------------|------------------------------|
G|-7---7---7---7--2-----2--2-|-5---5---5---5-----3-----3--3-|
D|-7---7---7---7--2-----2--2-|-5---5---5---5-----3-----3--3-|
A|-5---5---5---5--0-----0--0-|-3---3---3---3-----1-----1--1-|
E|---------------------------|------------------------------|


[Bridge 3/Outro]

   F#5  E5  F#5  A5  E5    F#5  E5  F#5  A5  E5
                      She said,               she said,
e|-----------------------|------------------------|
B|-----------------------|------------------------|
G|-----------------------|------------------------|
D|-4-4---2---4---/7---2--|-4-4---2---4---/7---2---|
A|-4-4---2---4---/7---2--|-4-4---2---4---/7---2---|
E|-2-2---0---2---/5---0--|-2-2---0---2---/5---0---|

   F#5  E5  F#5  A5  E5    F#5  E5  F#5  A5  E5
                      She said,               she said,
e|-----------------------|------------------------|
B|-----------------------|------------------------|
G|-----------------------|------------------------|
D|-4-4---2---4---/7---2--|-4-4---2---4---/7---2---|
A|-4-4---2---4---/7---2--|-4-4---2---4---/7---2---|
E|-2-2---0---2---/5---0--|-2-2---0---2---/5---0---|

   F#5  E5  F#5  A5  E5    F#5  E5  F#5  A5  E5
                      She said,               she said,
e|-----------------------|------------------------|
B|-----------------------|------------------------|
G|-----------------------|------------------------|
D|-4-4---2---4---/7---2--|-4-4---2---4---/7---2---|
A|-4-4---2---4---/7---2--|-4-4---2---4---/7---2---|
E|-2-2---0---2---/5---0--|-2-2---0---2---/5---0---|

   F#5  E5  F#5  A5  E5    F#5  E5  F#5  A5  E5
                      She said,               she said
e|-----------------------|------------------------|
B|-----------------------|------------------------|
G|-----------------------|------------------------|
D|-4-4---2---4---/7---2--|-4-4---2---4---/7---2---|
A|-4-4---2---4---/7---2--|-4-4---2---4---/7---2---|
E|-2-2---0---2---/5---0--|-2-2---0---2---/5---0---|


[Outro]

E5
        Dude!

************************************

| /  slide up
| \  slide down
| h  hammer-on
| p  pull-off
| ~  vibrato
| +  harmonic
| x  Mute note

************************************
Suggest correction
comments
print report bad tab
30 comments total. Showing first comments. show 1 bad comment
0 reply
NiRvanAcobain 10 Jan 23, 2004 12:00 AM

this is wrong.

0 reply
~dEaD bRaIn~ 10 Aug 20, 2004 12:00 AM

this tab sucks..the chorus is so wrong

guest
You may want to rate the tab now too:
select rating
Wanna post a correction for this tab? Suggest correction