Oops, an error
Loading. Please wait.

Breed Tab

version 2
version 2

Whole song

Video

  • High quality, easy to follow video lesson.
77,038 views 81 this week
33 commentsread comments
1 2 3 4 5
x 45
add to favorites
launch autoscroll
font size
0
reset
how to read this tab
guitar tuner
×
Best way to learn
"Breed"
Autoscroll
slow
fast
+/-
esc
set tempo
stop
-------------------------------------------------------------------------------
                             BREED - Nirvana
-------------------------------------------------------------------------------
Tabbed by:  Garrett
Email:  Garrett52789@aol.com

Tuning:  Standard

(Studio effect intro)

w/ heavy distortion


[Riff A]

e|----------------------------------------------------------------------------------|
B|----------------------------------------------------------------------------------|
G|----------------------------------------------------------------------------------|
D|--4---4---4---4--/--7------2------------------------------------------------------|
A|--4---4---4---4--/--7------2------------------------------------------------------|
E|--2---2---0---2--/--5------0------------------------------------------------------|(x16)


[Riff B] 
[Verse]

e|-----------------------------------------------------------------------------|
B|-11---11---11---11-----------------------------------------------------------|
G|-11---11---11---11-(x7)---9------9---7---------------------------------------|
D|--9-----9----9-----9---------------------------------------------------------|
A|-----------------------------------------------------------------------------|
E|-----------------------------------------------------------------------------|


[Riff C] 

(when Kurt shouts "ghost!", it sounds like "go")
e|-----------------------------------------------------------------------------|
B|-----------------------------------------------------------------------------|
G|-----------------------------------1-----------------------------------------|
D|--4---4---4---4---4---4---4---0----------------------------------------------|
A|--4---4---4---4---4---4---4--------------------------------------------------|
E|--2---2---2---2---2---2---2--------------------------------------------------|


[Riff D] 
[Chorus]

e|-----------------------------------------------------------------------------|
B|-----------------------------------------------------------------------------|
G|--7--7---7---X--------------------5---5---5---X---4------4---X---------------|
D|--7--7---7---X---7------7---X---5---5---5---X---4------4---X-----------------|
A|--5---5---5---X---7------7---X---3---3---3---X---2------2---X----------------|
E|---------------------5------5---X--------------------------------------------|

After you play the chorus, go back to the origanal riff  and
play it  8 times.  Then play the verse again and the chorus,
followed by the Solo.


[Riff E]
[Solo]

e|-----------------------------------------------------------------------------|
B|---------------------------------------------12--12--12--12------------------|
G|-11--11--11--11--11--11--11--11--11--11--11--11------------------------------|
D|-----------------------------------------------------------------------------|
A|--9----9----9----9----9----9---9----9----9----9---9----9---------------------|
E|-----------------------------------------------------------------------------|

e|-----------------------------------------------------------------------------|
B|-12--------------------------------------------------------------------------|
G|-11----10-----0---9---14---14---14---14---14---14---14---14------------------|
D|-----------------------------------------------------------------------------|
A|--9-----------------------12---12---12---12---12---12---12---12--------------|
E|-----------------------------------------------------------------------------|

e|-----------------------------------------------------------------------------|
B|-----------------------------------------------------------------------------|
G|--14---14---14---14---14------13---12---12--/---17---17----------------------|
D|-----------------------------------------------------------------------------|
A|--12---12---12---12---12------11---10---12--/---15---15----------------------|
E|-----------------------------------------------------------------------------|

Play that last chord about 24 more times, then...

e|-----------------------------------------------------------------------------|
B|-----------------------------------------------------------------------------|
G|--18---16---15---14--/--19---------------------------------------------------|
D|-----------------------------------play that chord 7 more times--------------|
A|--16---14---13---12--/--17---------------------------------------------------|
E|-----------------------------------------------------------------------------|

e|-----------------------------------------------------------------------------|
B|-----------------------------------------------------------------------------|
G|--20---20---21---21---22---22---22---22--------------------------------------|
D|-----------------------------------------------------------------------------|
A|--18---18---19---19---20---20---20---20--------------------------------------|
E|-----------------------------------------------------------------------------|


[Riff F]

(outro "she said")
e|-----------------------------------------------------------------------------|
B|-----------------------------------------------------------------------------|
G|-----------------------------------------------------------------------------|
D|--4---4---------------------------4------------------------------------------|
A|--4---4----------------------------4-----------------------------------------|
E|--2---2---0---2---5------0------2--------------------------------------------|

I'm pretty sure this is right, thanks for reading it, dont forget to rate it!


************************************

| /  slide up
| \  slide down
| h  hammer-on
| p  pull-off
| ~  vibrato
| +  harmonic
| x  Mute note

************************************
Suggest correction
comments
print report bad tab
33 comments total. Showing first comments.
+5 reply
Repitition 10 Mar 31, 2006 09:47 PM

You Hit The Back of the Neck behind the 1st and 2nd fret to get the studio effect. Thats what Kurt did Live.

+1 reply
Negative_Creep7 10 Apr 08, 2006 04:06 PM

AWSOME TAB 5 stars

0 reply
Misterduke 10 Apr 14, 2006 03:41 AM

Good work!

guest
You may want to rate the tab now too:
select rating
Wanna post a correction for this tab? Suggest correction